Song name
# A B C D E F G H I J K L M N O P Q R S T U V W X Y Z

Arctic Monkeys - Hold On Were Going Home tab

Arctic Monkeys cover Drake's song "Hold On, We're Going Home".
This cover have a lot of views in youtube and, consequently, also a lot of search a 
guitar tab, including me. But I didn't seen any tab for this song.
It's a great music for playing and for beginners.
Hope I help in something.

Use delay and reverb.

Intro:

e|---------|-----------|
B|---------|-----------|
G|---------|-----------|
D|---------|-----------|    2x
A|--4-2-0--|--0-------0|
E|---------|----2-0-2--|


Verse:

Chords first, and riff after

    A6     F#m     E

e|--9---|--9---|--7--|
B|--7---|--10--|--9--|
G|--9---|--11--|--9--|   2x
D|--7---|--11--|--9--|
A|------|--9---|-----|
E|------|------|-----|

    A6

e|--9---|
B|--7---|
G|--9---|
D|--7---|
A|------|
E|------|


e|-----------|
B|-----------|
G|-----------|    4x
D|-----------|
A|--0-------0|
E|----2-0-2--|


Chorus:

- fast picking, which will enhance the delay


e|-----------------------|
B|--1414141414--12~--10--|
G|-----------------------|   8x
D|-----------------------|
A|-----------------------|
E|-----------------------|


- Repeat verse

- Repeat Chorus


Final Verse:

    A6     F#m     E

e|--9---|--9---|--7--|
B|--7---|--10--|--9--|
G|--9---|--11--|--9--|   2x
D|--7---|--11--|--9--|
A|------|--9---|-----|
E|------|------|-----|


e|--------------------------------------17--|
B|--10--12--14--17--14--12--10--12--14------|
G|------------------------------------------|
D|------------------------------------------|
A|------------------------------------------|
E|------------------------------------------|


e|--------------------------------------17--14--12--------------------------------------17~~|
B|--10--12--14--17--14--12--10--12--14--------------10--12--14--17--14--12--10--12--14------|
G|------------------------------------------------------------------------------------------|
D|------------------------------------------------------------------------------------------|
A|------------------------------------------------------------------------------------------|
E|------------------------------------------------------------------------------------------|


This is my first ever tab so any ratings, comments or improvements would be appreciated.
Thank you.
Tap to rate this tab
# A B C D E F G H I J K L M N O P Q R S T U V W X Y Z