Song name
# A B C D E F G H I J K L M N O P Q R S T U V W X Y Z

Arctic Monkeys - Knee Socks tab

e|----------7----------7-----------------------------------------------------|
B|----8-/10------8-/10-----8\--------8-10-12-10-8----------------------------|
G|-/9---------/9---------9-----7---9--------------9--------------------------|
D|---------------------------------------------------------------------------|
A|---------------------------------------------------------------------------|
E|---------------------------------------------------------------------------|

e|----7--------7-------------------------------------------------------------|
B|--------8--------8-----5-7-8-10-8------------------------------------------|
G|--5---9----5---9-----4-----------------------------------------------------|
D|---------------------------------------------------------------------------|
A|---------------------------------------------------------------------------|
E|---------------------------------------------------------------------------|

e|----------7----------7-----------------------------------------------------|
B|----8-/10------8-/10-----8\--------8-10-12-10-8----------------------------|
G|-/9---------/9---------9-----7---9--------------9--------------------------|
D|---------------------------------------------------------------------------|
A|---------------------------------------------------------------------------|
E|---------------------------------------------------------------------------|

e|----7--------7-------------------------------------------------------------|
B|--------8--------8-----5-7-8-10-8-7-5--------------------------------------|
G|--5---9----5---9-----4-----------------------------------------------------|
D|---------------------------------------------------------------------------|
A|---------------------------------------------------------------------------|
E|---------------------------------------------------------------------------|
Tap to rate this tab
# A B C D E F G H I J K L M N O P Q R S T U V W X Y Z