Song name
# A B C D E F G H I J K L M N O P Q R S T U V W X Y Z

Arctic Monkeys - Scummy tab

Part 1 (Two times) - clean

e|-----x------x-----x-----x-----x-----|
B|-----x--14--x--9--x--7--x--9--x--7--|
G|--8--x--12--x--8--x--8--x--8--x--8--|
D|--9--x--x---x--9--x--8--x--9--x--8--|
A|--9--x--13--x--7--x--6--x--7--x--6--|
E|--7--x--11--x-----x-----x-----x-----|

e|--4---------------------|
B|--5--/--11--9--7--5--7--|
G|--6--/---------8--6--8--| 
D|--6--/--11--9--8--6--8--|
A|--4--/--9---7--6--4--6--|
E|------------------------|

Part 2 - Clean

e|------x-----x------x-----x------x-----|
B|--12--x--7--x--12--x--7--x--12--x--7--|
G|--13--x--8--x--13--x--8--x--13--x--8--| 
D|--13--x--8--x--13--x--8--x--11--x--8--|
A|--11--x--6--x--11--x--6--x--11--x--6--|
E|------x-----x------x-----x------x-----|

e|--4-4----6-6----7-7----9---|
B|--5-5----7-7----9-9----11--|
G|--6-6----8-8----7-7----9---| 
D|--6-6----8-8----9-9----11--|
A|--4-4----6-6----7-7----9---|
E|---------------------------|

Part 3 - Slight overdrive

e|--------------|
B|--3-----------|
G|--4------4-3--| 
D|--4------5-4--|Guitar 2 plays along Bm with distortion
A|--2------5-4--|
E|---------3-2--|

Guitar 2 - Distortion 

e|-----------------------|
B|-----------------------|
G|-----------------------| 
D|------------------2-4--|
A|------------2-2-5------|
E|--3-3-2-2-2------------|


e|----------|
B|-------3--|
G|--4-3--4--| 
D|--5-4--4--|
A|--5-4--2--|
E|--3-2-----|

Chorus

e|--7-/-9----------|
B|--8-/-10--3-3-3--|
G|--9-/-11--4-4-4--| 
D|--9-/-11--4-4-4--|x4 (x8 Second time)
A|--7-/-9---2-2-2--|
E|-----------------|

e|-----2---|
B|-----2---|
G|--2--3---| 
D|--2--4---| 
A|--0--4---|
E|-----2---|

Final - Clean (Distorted guitar Bm)

e|-----x------x-----x-----x-----x-----|
B|-----x--14--x--9--x--7--x--9--x--7--|
G|--8--x--12--x--8--x--8--x--8--x--8--|
D|--9--x--x---x--9--x--8--x--9--x--8--|
A|--9--x--13--x--7--x--6--x--7--x--6--|
E|--7--x--11--x-----x-----x-----x-----|


e|--4-4----6-6----7-7----9---|
B|--5-5----7-7----9-9----11--|
G|--6-6----8-8----7-7----9---| 
D|--6-6----8-8----9-9----11--|
A|--4-4----6-6----7-7----9---|
E|---------------------------|

e|--10--10--10--10--9--7--|
B|--11--11--11--11--11-7--|
G|--9---9---9---9---9--8--| 
D|--11--11--11--11--11-9--|
A|--9---9---9---9---9--9--|
E|---------------------7--|

Enjoy!
Tap to rate this tab
# A B C D E F G H I J K L M N O P Q R S T U V W X Y Z