Song name
# A B C D E F G H I J K L M N O P Q R S T U V W X Y Z

Arctic Monkeys - She Looks Good On The Dancefloor tab

Arctic Monkeys

She looks good on the Dancefloor


Tabber : Dave Mullen

Email : charli_baltimore_inc@hotmail.com


Intro Riff

E|----------------------------------------|
B|----------------------------------------|
G|----------------------------------------|
D|-5-5-5-5--7-7-7-7--9-9-9-9--11-11-11-11-|
A|----------------------------------------|
E|----------------------------------------|

------------------------------------------------|
------------------------------------------------|
-9-9-9-9--11-11-11-11--14-14-14-14--16-16-16-16-|
------------------------------------------------|
------------------------------------------------|
------------------------------------------------|

E|----------------------------------|
B|----------------------------------|
G|--16b-16b-16b-16b-16b-16b-16b-16b-|
D|----------------------------------|
A|----------------------------------|
E|----------------------------------|

------------------------------------------------|
------------------------------------------------|
-16r-16-14----------14-16-14----------14-16b~~~-|
-----------16-14-16----------16-14-16-----------|
------------------------------------------------|
------------------------------------------------|

E|-----------------------------------------------|
B|-----------------------------------------------|
G|-16-16-16-16-14----------14-11~--11-11-11-11-9-|
D|----------------16-14-16-----------------------|
A|-----------------------------------------------|
E|-----------------------------------------------|

-------------------------------------------------|
-------------------------------------------------|
---------9---------11----------------------------|
-11-9-11---11-9-11----9-11-9b-9b-9b-9b-9b-9b-7---|
-----------------------------------------------9-|
-------------------------------------------------|
Tap to rate this tab
# A B C D E F G H I J K L M N O P Q R S T U V W X Y Z