Song name
# A B C D E F G H I J K L M N O P Q R S T U V W X Y Z

Arctic Monkeys - Curtains Close tab

Help us improve GuitareTab! Take a short survey!
-----------------------------------------------------------------------|
-----------------------------------------------------------------------|
---------------3-5-3-5^--3---3-------------3---3-5-3-5^-5-5-3--5-3-5^--|
--0-3-5-5--3-5-------------5-----5-5-5-3-5---5-------------------------|
-----------------------------------------------------------------------|
-----------------------------------------------------------------------|


---------3---3-6-3-6-6/8---6-8-8^-6---8^-6---8^-6---8^-6---------------|
-3-6-3-6---6------------------------3------3------3--------------------|
-----------------------------------------------------------------------|
-----------------------------------------------------------------------|
-----------------------------------------------------------------------|
-----------------------------------------------------------------------|
Related for Curtains Close tab