Song name
# A B C D E F G H I J K L M N O P Q R S T U V W X Y Z

Arctic Monkeys - Cigarette Smoke tab

This Is Cigarette Smoke, NOT Cigarette Smoker Fiona

Key
b - bend To...e.g. 7 bend to 9 = 7b9
h - Hold
\ - Slide Down
***Intro 1***

e--------------------------------|
B--------------------------------|
G-----------------------------7b-|
D-7-7-7--7-7-7--7-7-7--7-7-7--7b-|
A-7-7-7--7-7-7--7-7-7--7-7-7--5b-|
E-5-5-5--5-5-5--5-5-5--5-5-5-----|x1

***Intro 2***
e------------------------------------------------------|
B-----------------------7b9-----------5-7--------------|
G----------5b-------5-7-----------5-7-----------7b8-7-5|
D-7-7-7-7-----7-7-7---------7-7-7---------7-7-7--------|
A-7-7-7-------7-7-7---------7-7-7---------7-7-7--------|
E-5-5-5-------5-5-5---------5-5-5---------5-5-5--------|x2


***Verse***

e--------------------------------|
B--------------------------------|
G-------------------------7-7-7\-|
D-7-7-7\--7-7-7\--3-3-3\--7-7-7\-|
A-7-7-7\--7-7-7\--3-3-3\--5-5-5\-|
E-5-5-5\--5-5-5\--1-1-1\---------|x4


***Chorus***
               10's, 12's And 14's
e----------------------------------------------------------|
B----------------------------------------------------------|
G----------------------------------------------------------|
D-7-7-7-797-10-10-10-101210-141414-1414--14-12-14-17-14-12-|
A----------------------------------------------------------|
E----------------------------------------------------------|x2

***Intro 2***

***Verse  ***  

***Chorus *** 

Rest

***Bridge***
                         10's not 1 and 0
e------------------------------------------|
B------------------------------------------|
G------------------------------------------|
D-7-7-7-77777777-10-10-10-1010101010101010-|
A-7-7-7-77777777-10-10-10-1010101010101010-|
E-5-5-5-55555555-8--8--8--8-8-8-8-8-8-8-8--|

               12's and 14's
e----------------------------------------------------|
B----------------------------------------------------|
G----------------------------------------------------|
D-14-14-14-1414141414141414-14-14-14-1414141414141414|
A-14-14-14-1414141414141414-14-14-14-1414141414141414|
E-12-12-12-1212121212121212-12-12-12-1212121212121212|

e-----------------------------------------------|-------------------|
B-----------------------------------------------|-------------------|
G-----------------------------------------------|-------------------|
D-7-7-7-77777777-10-10-10-1010101010101010--14\-|-14-12-14-17-14-12-|
A-7-7-7-77777777-10-10-10-1010101010101010--14\-|-------------------|
E-5-5-5-55555555-8--8--8--8-8-8-8-8-8-8-8---12\-|-------------------|

***Chorus***

then

e----------------------------------------------------------|
B----------------------------------------------------------|
G----------------------------------------------------------|
D-7-7-7-797-10-10-10-101210-141414-1414--14-12-14-17-14-12-|
A----------------------------------------------------------|
E----------------------------------------------------------|

e---------------------------------------|
B---------------------------------------|
G---------------------------------------|
D-7-7-7-797-10-10-10-101210-141414-1414-|
A---------------------------------------|
E---------------------------------------|

e-------------------|
B-------------------|
G-------------------|
D-14-12-14-17-14-12-|        
A-------------------|
E-------------------|x3 then

e----|
B----|
G----|
D-7h-|
A----|
E----|
Tap to rate this tab
# A B C D E F G H I J K L M N O P Q R S T U V W X Y Z