Song name
# A B C D E F G H I J K L M N O P Q R S T U V W X Y Z

Arctic Monkeys - I Bet You Look Good On The Dancefloor tab

My Favourite band (next to The Fratellis).
Such a great song to play - SO FUN!
Hope you enjoy!

Tabber: Aled Parry.
Email: jonezi44@yahoo.co.uk.

Artist: The Arctic Monkeys.
Track: I Bet That You Look Good On The Dancefloor.
Track Number: 2.
Album: Whatever People Say I Am, That's What I'm Not.

----------------------------------------------------------------------------

Tuning: Standard E (Both Guitars)
---------------------------------

LEAD GUITAR (Guitar 1)
---------------------

Intro: (Distorted)
|------------------|
|------------------|
|------------------|
|-444-x-xx444-xxxx-| x3
|-444-x-xx444-xxxx-|
|-222-x-xx222-xxxx-|

|-----------------------------------|
|-----------------------------------|
|-----------------------------------|
|-1616161616161616\1414141414141414-|
|-1616161616161616\1414141414141414-|
|-1414141414141414\1212121212121212-|

|---------------------------------------------------------|
|---------------------------------------------------------|
|-------------------------------------9-9-9-9-11-11-11-11-|
|---------7-7-7-7-9-9-9-9-11-11-11-11---------------------|
|-9-9-9-9-------------------------------------------------|
|---------------------------------------------------------|

|--------------------------------------------------------|
|--------------------------------------------------------|
|-14-14-14-14-16-16-16-16-16b-16b-16b-16b-16b-16b-16b-16b|
|--------------------------------------------------------|
|--------------------------------------------------------|
|--------------------------------------------------------|

|--------------------------------------------------|
|--------------------------------------------------|
|-16-14----------14--16-14---------—14-16b~~~~r16--| 
|-------16-14-16-----------16-14-16----------------| 
|--------------------------------------------------|
|--------------------------------------------------|

|---------------------------------------------------------------|
|---------------------------------------------------------------|
|-16-16-16-16-14----------14------------------------------------|
|----------------16-14-16----16---16-16-16-16-14----------14----|
|------------------------------------------------16-14-16----16-|
|---------------------------------------------------------------|

|---------------------------------------------------------|
|---------------------------------------------------------|
|---------------------------------------------------------|
|---------------------------------------------------------|
|-14-12-14-12----------12-14-12----------12-14b151515r14\-|
|-------------14-12-14----------14-12-14------------------|

Verse (Clean)
|----------------------------|
|----------------------------|
|----------------------------|
|-11-11-9--9-9-x--7--7--4-xx-| x7
|-11-11-9--9-9-x--7--7--4-xx-|
|-9--9--7--7-7-x--5--5--2-xx-|
Stop makin’ the eyes at me, I'll stop making the eyes at you.
What it is that surprises me is that I don't really want you to,
And your shoulders are frozen (as cold as the night)
Oh, but you're an explosion (but you're dynamite)
Your name isn't Rio, but I don't care for sand.

|----------------------------|
|----------------------------|
|----------------------------|
|-11-11-9--9-9-x--7--7--2-22-|
|-11-11-9--9-9-x--7--7--2-22-|
|-9--9--7--7-7-x--5--5--0-00-|
And lighting the fuse might result in a bang with a bang-go!

Chorus (Distorted)
|----------------------------------------------------------------------|
|----------------------------------------------------------------------|
|----------------------------------/9999999999999999/11111111111111111-|
|-4444444444444444/7777777777777777/9999999999999999/11111111111111111-|
|-4444444444444444/7777777777777777/7777777777777777/-9999999999999999-|
|-2222222222222222/5555555555555555------------------------------------|
I bet that you look good on the dance floor,
I don't know if you're looking for romance or what,
Don't know what you're looking for.

|---------------------------------------------------------------------|
|---------------------------------------------------------------------|
|----------------------------------/9999999999999999\6666666666666666-|
|-4444444444444444/7777777777777777/9999999999999999\6666666666666666-|
|-4444444444444444/7777777777777777/7777777777777777\4444444444444444-|
|-2222222222222222/5555555555555555-----------------------------------|
I said bet that you look good on the dance floor,
Dancing to electro-pop like a robot from nineteen eighty-four,
From nineteen eighty-four!

Solo (Distorted)
|------------------------------------------------------------------------|
|------------------------------------------------------------------------|
|------------------------------------------------------------------------|
|------------------------------------------------------------------------|
|-/16--12---14-14-14-14-14-14-12-----------------------12-14-12-14-12-14-|
|--------------------------------14---1414141214-12-14-------------------|

|----------------------------------------------------|
|----------------------------------------------------|
|---------------------14----14----14-16b181818r16\---|
|----14----14---14-16----16----16--------------------|
|-16----16---16--------------------------------------|
|----------------------------------------------------|

Verse (Clean)
|----------------------------|
|----------------------------|
|----------------------------|
|-11-11-9--9-9-x--7--7--4-xx-| x7
|-11-11-9--9-9-x--7--7--4-xx-|
|-9--9--7--7-7-x--5--5--2-xx-|
I wish you'd stop ignoring me because you're sending me to despair,
Without a sound yeah you're calling me and I don't think it's very fair
That your shoulders are frozen (as cold as the night)
Oh, but you're an explosion (You're dynamite)
Your name isn't Rio but I don't care for sand
|----------------------------|
|----------------------------|
|----------------------------|
|-11-11-9--9-9-x--7--7--2-22-|
|-11-11-9--9-9-x--7--7--2-22-|
|-9--9--7--7-7-x--5--5--0-00-|
And lighting the fuse might result in a bang with a bang-go
Chorus (Distorted)
|---------------------------------------------------------------------|
|---------------------------------------------------------------------|
|----------------------------------/9999999999999999/11111111111111111-|
|-4444444444444444/7777777777777777/9999999999999999/11111111111111111-|
|-4444444444444444/7777777777777777/7777777777777777/-9999999999999999-|
|-2222222222222222/5555555555555555------------------------------------|
I bet that you look good on the dance floor,
I don't know if you're looking for romance or what,
Don't know what you're looking for.

|---------------------------------------------------------------------|
|---------------------------------------------------------------------|
|----------------------------------/9999999999999999\6666666666666666-|
|-4444444444444444/7777777777777777/9999999999999999\6666666666666666-|
|-4444444444444444/7777777777777777/7777777777777777\4444444444444444-|
|-2222222222222222/5555555555555555-----------------------------------|
I said I bet that you look good on the dance floor,
Dancing to electro-pop like a robot from nineteen eighty-four,
From nineteen eighty-four!

Bridge (Distorted)
|-----------------------------------------------------|
|-----------------------------------------------------|
|-----------------/9999999999999999/11111111111111111-|
|-7777777777777777/9999999999999999/11111111111111111-|
|-7777777777777777/7777777777777777/-9999999999999999-|
|-5555555555555555------------------------------------|
Oh there ain't no love 
No Montagues or Capulets 

|-----------------------------------------------------|
|-----------------------------------------------------|
|-11111111111111111\----------------/9999999999999999-|
|-11111111111111111\7777777777777777/9999999999999999-|
|--9999999999999999\7777777777777777/7777777777777777-|
|-------------------5555555555555555------------------|
We're just banging tunes and DJ sets and 
Dirty dance floors and dreams of naughtiness

Break (Distorted)
|------------------|
|------------------|
|------------------|
|-444-x-xx444-xxxx-| x4
|-444-x-xx444-xxxx-|
|-222-x-xx222-xxxx-|

|--------------------------------|
|--------------------------------|
|--------------------------------|
|-/16-16-16161616\12-12-12121212-| x3
|-/16-16-16161616\12-12-12121212-|
|-/14-14-14141414\12-12-12121212-|

|--------------------------------------|
|--------------------------------------|
|--------------------------------------|
|-1616161616161616\1414141414141414/16-|
|-1616161616161616\1414141414141414/16-|
|-1414141414141414\1212121212121212/14-|


Chorus/Outro (Distorted)
|---------------------------------------------------------------------|
|---------------------------------------------------------------------|
|----------------------------------/9999999999999999/11111111111111111-|
|-----------------/7777777777777777/9999999999999999/11111111111111111-|
|-----------------/7777777777777777/7777777777777777/-9999999999999999-|
|-----------------/5555555555555555------------------------------------|
Well I bet that you look good on the dance floor 
I don't know if you’re looking for romance or what 
I know what you laughed at!

|---------------------------------------------------------------------|
|---------------------------------------------------------------------|
|----------------------------------/9999999999999999\6666666666666666-|
|-4444444444444444/7777777777777777/9999999999999999\6666666666666666-|
|-4444444444444444/7777777777777777/7777777777777777\4444444444444444-|
|-2222222222222222/5555555555555555-----------------------------------|
I said I bet that you look good on the dance floor,
Dancing to electro-pop like a robot from nineteen eighty-four,
From nineteen eighty-four!

----------------------------------------------------------------------------

RHYTHM GUITAR (guitar 2)
------------------------

Intro: (Distorted)
|------------------|
|------------------|
|------------------|
|-444-x-xx444-xxxx-| x4
|-444-x-xx444-xxxx-|
|-222-x-xx222-xxxx-|

|----------------------------------|
|----------------------------------|
|----------------------------------|
|-44444444444444444444444444444444-|
|-44444444444444444444444444444444-|
|-22222222222222222222222222222222-|

  C#5  B5       A5   F#5
|----------------------------|
|----------------------------|
|----------------------------|
|-11-11-9--9-9-x--7--7--4-xx-| x4
|-11-11-9--9-9-x--7--7--4-xx-|
|-9--9--7--7-7-x--5--5--2-xx-|

Verse (Clean)
|----------------------------|
|----------------------------|
|----------------------------|
|-11-11-9--9-9-x--7--7--4-xx-| x7
|-11-11-9--9-9-x--7--7--4-xx-|
|-9--9--7--7-7-x--5--5--2-xx-|
Stop makin’ the eyes at me, I'll stop making the eyes at you.
What it is that surprises me is that I don't really want you to,
And your shoulders are frozen (as cold as the night)
Oh, but you're an explosion (but you're dynamite)
Your name isn't Rio, but I don't care for sand

|----------------------------|
|----------------------------|
|----------------------------|
|-11-11-9--9-9-x--7--7--2-22-|
|-11-11-9--9-9-x--7--7--2-22-|
|-9--9--7--7-7-x--5--5--0-00-|
And lighting the fuse might result in a bang with a bang-go!

Chorus (Distorted)
|---------------------------------------------------------------------|
|---------------------------------------------------------------------|
|---------------------------------------------------------------------|
|-4444444444444444/7777777777777777\2222222222222222/4444444444444444-|
|-4444444444444444/7777777777777777\2222222222222222/4444444444444444-|
|-2222222222222222/5555555555555555\0000000000000000/2222222222222222-|
I bet that you look good on the dance floor,
I don't know if you're looking for romance or what,
Don't know what you're looking for.

|---------------------------------------------------------------------|
|---------------------------------------------------------------------|
|---------------------------------------------------/6666666666666666-|
|-4444444444444444/7777777777777777\2222222222222222/6666666666666666-|
|-4444444444444444/7777777777777777\2222222222222222/4444444444444444-|
|-2222222222222222/5555555555555555\0000000000000000------------------|
I said bet that you look good on the dance floor,
Dancing to electro-pop like a robot from nineteen eighty-four,
From nineteen eighty-four!

Solo (Clean)
|----------------------------|
|----------------------------|
|----------------------------|
|-11-11-9--9-9-x--7--7--4-xx-| x4
|-11-11-9--9-9-x--7--7--4-xx-|
|-9--9--7--7-7-x--5--5--2-xx-|

Verse (Clean)
|----------------------------|
|----------------------------|
|----------------------------|
|-11-11-9--9-9-x--7--7--4-xx-| x7
|-11-11-9--9-9-x--7--7--4-xx-|
|-9--9--7--7-7-x--5--5--2-xx-|
I wish you'd stop ignoring me because you're sending me to despair,
Without a sound yeah you're calling me and I don't think it's very fair
That your shoulders are frozen (as cold as the night)
Oh, but you're an explosion (You're dynamite)
Your name isn't Rio but I don't care for sand

|----------------------------|
|----------------------------|
|----------------------------|
|-11-11-9--9-9-x--7--7--2-22-|
|-11-11-9--9-9-x--7--7--2-22-|
|-9--9--7--7-7-x--5--5--0-00-|
And lighting the fuse might result in a bang with a bang-go

Chorus (Distorted)
|---------------------------------------------------------------------|
|---------------------------------------------------------------------|
|---------------------------------------------------------------------|
|-4444444444444444/7777777777777777\2222222222222222/4444444444444444-|
|-4444444444444444/7777777777777777\2222222222222222/4444444444444444-|
|-2222222222222222/5555555555555555\0000000000000000/2222222222222222-|
I bet that you look good on the dance floor,
I don't know if you're looking for romance or what,
Don't know what you're looking for.

|---------------------------------------------------------------------|
|---------------------------------------------------------------------|
|---------------------------------------------------/6666666666666666-|
|-4444444444444444/7777777777777777\2222222222222222/6666666666666666-|
|-4444444444444444/7777777777777777\2222222222222222/4444444444444444-|
|-2222222222222222/5555555555555555\0000000000000000------------------|
I said I bet that you look good on the dance floor,
Dancing to electro-pop like a robot from nineteen eighty-four,
From nineteen eighty-four!

Bridge (Distorted)
|-----------------------------------------------------|
|-----------------------------------------------------|
|-----------------/9999999999999999/11111111111111111-|
|-7777777777777777/9999999999999999/11111111111111111-|
|-7777777777777777/7777777777777777/-9999999999999999-|
|-5555555555555555------------------------------------|
Oh there ain't no love 
No Montagues or Capulets 

|-----------------------------------------------------|
|-----------------------------------------------------|
|-11111111111111111\----------------/9999999999999999-|
|-11111111111111111\7777777777777777/9999999999999999-|
|--9999999999999999\7777777777777777/7777777777777777-|
|-------------------5555555555555555------------------|
We're just banging tunes and DJ sets and 
Dirty dance floors and dreams of naughtiness

Break (Distorted)
|------------------|
|------------------|
|------------------|
|-444-xxxx-444-xxx-| x4
|-444-xxxx-444-xxx-|
|-222-xxxx-222-xxx-|

|-----------|
|-----------|
|-----------|
|-4444-xxxx-| x8
|-4444-xxxx-|
|-2222-xxxx-|

Chorus/Outro (Distorted)
|---------------------------------------------------------------------|
|---------------------------------------------------------------------|
|----------------------------------/9999999999999999/11111111111111111-|
|-----------------/7777777777777777/9999999999999999/11111111111111111-|
|-----------------/7777777777777777/7777777777777777/-9999999999999999-|
|-----------------/5555555555555555------------------------------------|
Well I bet that you look good on the dance floor 
I don't know if you’re looking for romance or what 
I know what you laughed at!

|---------------------------------------------------------------------|
|---------------------------------------------------------------------|
|----------------------------------/9999999999999999\6666666666666666-|
|-4444444444444444/7777777777777777/9999999999999999\6666666666666666-|
|-4444444444444444/7777777777777777/7777777777777777\4444444444444444-|
|-2222222222222222/5555555555555555-----------------------------------|
I said I bet that you look good on the dance floor,
Dancing to electro-pop like a robot from nineteen eighty-four,
From nineteen eighty-four!
Tap to rate this tab
# A B C D E F G H I J K L M N O P Q R S T U V W X Y Z