Song name
# A B C D E F G H I J K L M N O P Q R S T U V W X Y Z

Arctic Monkeys - Settle For A Draw tab

Arctic Monkeys - Settle for a draw solo

This is my first tab!

I love this song, especially this solo. Couldn’t find it anywhere else, so I tabbed it!

|--------------------------------------------------------------------------------------|
|--------------------------------------------------------------------------------------|
|----8-6---6---------------------------------------------8-6---6-----------------------|
|---------8---4-6--4-6-4--8-8-8-8--4-6-6-7^-6-4--------8---4-6--4-6-4--8-8-8-8--4-6-6--|
|-6----------------------------------------------------6-------------------------------|
|--------------------------------------------------------------------------------------|

|----------------------------------------------------------------------|
|----------------7--7-9-7-9-11-7---------------------------------------|
|--------------8--8-----------------8--8-8-6-8-6-----------------------|
|-6-6-8-6-8---------------------------------------8-6-4-6--------------|
|---------------------------------------------------------------6---4--|
|----------------------------------------------------------------------|


|---------------------------------------------------------------------------------------|
|--11----------11---------------11-11-11------------------------9----11-11-11-11-9------|
|-------11--8------11--8--11---------------11-8-11-11-11-11--11-------------------11-8--|
|---------------------------------------------------------------------------------------|
|---------------------------------------------------------------------------------------|
|---------------------------------------------------------------------------------------|

Arctic Monkeys Rule!
Tap to rate this tab
# A B C D E F G H I J K L M N O P Q R S T U V W X Y Z