Song name
# A B C D E F G H I J K L M N O P Q R S T U V W X Y Z

Arctic Monkeys - Chun Lis Spinning Bird Kick tab

This song has to guitars. guitar one does the main riff during the whole song and guitar 
does some fills etc

For the intro it's just drums, guitar feedbacks and wierd bendings

main riff: repeats itself through the whole song
e|-------------------------------------------------------------------------|
B|-------------------------------------------------------------------------|
G|-------------------------------------------------------------------------|
D|-------------------------------------------------------------------------|
A|---3h5p3--------3h5p3--------3h5p3--------3h5p3-5^----3h5p3--------------|
E|-5-------3~-4-5-------3~-4-5-------3~-4-5-----------5-------3~-4-5-------|

e|-------------------------------------------------------------------------|
B|-------------------------------------------------------------------------|
G|-------------------------------------------------------------------------|
D|-------------------------------------------------------------------------|
A|-3h5p3--------3h5p3--------3h5p3-5^--------------------------------------|
E|-------3~-4-5-------3~-4-5-----------------------------------------------|

  Chorus or whatever you want to call it

  Guitar 2
e|-------------------------------------------------------------------------|
B|-5-3---3-------------------5-3---3---------------------------------------|
G|-----5---2-5~------------------5---5-2~----------------------------------|
D|-------------------------------------------------------------------------|
A|-------------------------------------------------------------------------|
E|-------------------------------------------------------------------------|
  Guitar 1
e|-------------------------------------------------------------------------|
B|-------------------------------------------------------------------------|
G|-9-9-x-7-x-5~--------------9-9-x-7-x-------------------------------------|
D|-9-9-x-7-x-5~--------------9-9-x-7-x-7~----------------------------------|
A|-7-7-x-5-x-3~--------------7-7-x-5-x-7~----------------------------------|
E|-------------------------------------5~----------------------------------|

 After the first chorus guitar 1 does main riff again while guitar 2 does this,the 
is a bit wierd but it's easy to find out and if you can't,just by strumming chord A it will 
good
  Guitar 2 (fill in 1)

e|-5----x----5-5-5---------------------------------------------------------|
B|-5----x----5-5-5---------------------------------------------------------|
G|-x--x-x-x--x-x-x-repeat 8 times------------------------------------------|
D|-7--x-x-x--7-7-7-and on the last ----------------------------------------|
A|-7--x---x----7-7-one let it ring-----------------------------------------|
E|-5--x---x----5-5---------------------------------------------------------|

then do this while guitar one keeps on with the main riff
   Guitar 2(fill in 2)

e|-------------------------------------------------------------------------|
B|-------------------------------------------------------------------------|
G|-------------------------------------------------------------------------|
D|-------------------------------------------------------------------------|
A|---3h5p3--------3h5p3--------3h5p3--------3h3p5 5^-----------------------|
E|-5-------3~-4-5-------3~-4-5-------3~-4-5--------------------------------|

e|-------------------------------------------------------------------------|
B|-----------------------------------------------------5/3-(3)-5-----------|
G|---5h7p5--------5h7p5--------5h7p5----------5h7-5-7^---------5-----------|
D|-7-------5~-6-7-------5-~6-7-------5~55-6-7------------------------------|
A|-------------------------------------------------------------------------|
E|-------------------------------------------------------------------------|

  Here play the chorus part again
  After that there's a Bridge in which the main rif slightly appears with a wierd 
effect and one guitar does slides
  Then there's this with the main riff too
  Guitar 2 ( fill in 3)

e|-5\11/8~-----------------------------------------------------------------|
B|-------------------------------------------------------------------------|
G|-------------------------------------------------------------------------|
D|-------------------------------------------------------------------------|
A|-------------------------------------------------------------------------|
E|-------------------------------------------------------------------------|

  Guitar 2(fill in 4)

e|-------------------------------------------------------------------------|
B|-------------------------------------------------------------------------|
G|-------------------------------------------------------------------------|
D|---5/2-------------------------------------------------------------------|
A|-------(5)-3-------------------------------------------------------------|
E|-5-----------------------------------------------------------------------|


  Order:
  main riff x2
  Chorus
  main riff-guitar 2(fill in 1)
  main riff-guitar 2(fill in 2)
  Chorus
  Bridge(with reverbs...)
  main riff x2-guitar 2(fill in 3)
  main riff x2-guitar 2(fill in 4)
  (here there's a litlle drum break)
  main riff(until the end of the song)- guitar 2(mixing all the fills)


| /  slide up
| \  slide down
| h  hammer-on
| p  pull-off
| ~  vibrato
| +  harmonic
| x  Mute note
============================================================================
Tap to rate this tab
 
# A B C D E F G H I J K L M N O P Q R S T U V W X Y Z