Song name
# A B C D E F G H I J K L M N O P Q R S T U V W X Y Z

Arctic Monkeys - Vampires Is Abit Strong But tab

Arctic Monkeys

Vampires is abit strong but...

Tabbed by : Dave Mullen


-*Intro*

(mellow bit)

Bass
G|--------------------------------------------------------|
D|--------------------------------------------------------|
A|-4-4----------------4-4-----------------4-4-------------|
E|-----5-5--2-2--5-5-------5-5--2-2--5-5-------5-5--------|


Guitar
e|---------------------------------------------------------|
B|---------------------------------------------------------|
G|-------2---2-4-2------------2----------------------------|
D|-4-2-4---4-------4~---4-2-4---4-2-4-2----------2---------|
A|--------------------------------------4~---2-4---4-2-0---|
E|---------------------------------------------------------|



(Not so mellow bit)

Bass
G|---------------------------------------------------------|
D|---------------------------------------------------------|
A|-----------4-4--3--------------4-4--3--------------------|
E|-2-2--5-5------------2-2--5-5----------------------------|


Guitar
e|---------------------------------------------------------|
B|---------------------------------------------------------|
G|-----------6-6--5--------------6-6--5--------------------|
D|-4-4--7-7--6-6--5----4-4--7-7--6-6--5--------------------|
A|-4-4--7-7--4-4--3----4-4--7-7--4-4--3--------------------|
E|-2-2--5-5------------2-2--5-5----------------------------|


Bass
G|---------------------------------------------------------|
D|---------------------------------------------------------|
A|-----------4-4-----------------4-4-----------------------|
E|-2-2--5-5-------5-5--2-2--5-5-------5-5------------------|


Guitar
e|---------------------------------------------------------|
B|---------------------------------------------------------|
G|-----------6-6-----------------6-6-----------------------|
D|-4-4--7-7--6-6--7-7--4-4--7-7--6-6--7-7------------------|
A|-4-4--7-7--4-4--7-7--4-4--7-7--4-4--7-7------------------|
E|-2-2--5-5-------5-5--2-2--5-5-------5-5------------------|
Tap to rate this tab
# A B C D E F G H I J K L M N O P Q R S T U V W X Y Z