Guitaretab - guitar tabs
Song name
# A B C D E F G H I J K L M N O P Q R S T U V W X Y Z

Arctic Monkeys - Stickin To The Floor tab

Arctic Monkeys  stickin to the floor
Ryan.c

1st verse
1st/2nd guitar
e----------------|
B----------------|
G---5---7b-5-----|
D-7---7-----7----|
A----------------|
E----------------|

chorus
e--------------------------------|
B--------------------------------|
G----------------5-5/7----5-5/7--|
D--12--10-9-8--7-5-5/7--5-5-5/7--|
A--12--10-9-8--7-3-3/5--5-3-3/5--|
E--10--8--7-6--5--------7--------|

2nd verse
e----------------|
B-------7b-------|
G---5---7b-5-----|
D-7---7-----7----|
A----------------|
E----------------|
[ Tab from: http://www.guitaretab.com/a/arctic-monkeys/66083.html ]
solo
e-----------------------|
B---7-5---7-5----7-5----|
G---7-5---7-5----7-5----|
D-7-----7------7------7-|
A-----------------------|
E-----------------------|

e----------8------------------|
B---7-5----8------------------|
G---7-5-------7-5----7-5--7-5-|
D-7-----7---------7-----------|
A-----------------------------|
E-----------------------------|

e-----8-------------8---------|
B---5-8-5---------5-8-5-------|
G---5---5--7-5----5---5--7-5--|
D-7-----------7-------------7-|
A-----------------------------|
E-----------------------------|


e--5--------------------------|
B----5-8---5------------------|
G--------7---5-7---7b---------|
D----------------7------------|
A-----------------------------|
E-----------------------------|
Related for Stickin To The Floor tab