Song name
# A B C D E F G H I J K L M N O P Q R S T U V W X Y Z

Arctic Monkeys - Space Invaders tab

here is the tab that was lacking on ultimate-guitar : space invaders by arctic monkeys, 
version :)


be lenient, this is my first tab. it is not brilliant, but i hope it will serve as base
for better tabbers. a beggining, nobody wanted to start tabbing this song!


enjoy.


ps: a guitar pro version is coming soon ;)

e|-------------------------------------------------------------------------------------|
b|-------------------------------------------------------------------------------------|
g|-------------------------------------------------------------------------------------|
d|---12--x-x-12--x-x-x-x-15----x-x-12--x-x-12---------3h5p3----------------------------|
a|---12--x-x-12--x-x-x-x-13----x-x-12--x-x-10-----3h5----------------------------------|
e|---10--x-x-10--x-x-x-x-13----x-x-10--x-x-10\3h5--------------------------------------|

e|-------------------------------------------------------------------------------------|
b|-------------------------------------------------------------------------------------|
g|---7--x-x-7--x-x-x-x-10------7--x-x-7-------10----10-12-12b14r-----------------------|
d|---7--x-x-7--x-x-x-x-10------7--x-x-7--7/12----12------------------------------------|
a|---5--x-x-5--x-x-x-x-8-------5--x-x-5------------------------------------------------|
e|-------------------------------------------------------------------------------------|

e|-------------------------------------------------------------------------------------|
b|-------------------------------------------------------------------------------------|
g|-------------------------------------------------------------------------------------|
d|---12--x-x-12--x-x-x-x-15----x-x-12--x-x-12---------3h5p3----------------------------|
a|---12--x-x-12--x-x-x-x-13----x-x-12--x-x-10-----3h5----------------------------------|
e|---10--x-x-10--x-x-x-x-13----x-x-10--x-x-10\3h5--------------------------------------|

e|-------------------------------------------------------------------------------------|
b|-------------------------------------------------------------------------------------|
g|---7--x--7----7----7----7----7-------10----10-12-12b14r------------------------------|
d|---7--x--7----7----7----7----7--7/12----12-------------------------------------------|
a|---5--x--5----5----5----5----5-------------------------------------------------------|
e|-------------------------------------------------------------------------------------|

e|-------------------------------------------------------------------------------------|
b|-------------------------------------------------------------------------------------|
g|-------------------------------------------------------------------------------------|
d|---12--x-x-12--x-x-x-x-15------12--x-x-12---------3h5p3------------------------------|
a|---12--x-x-12--x-x-x-x-13------12--x-x-10-----3h5------------------------------------|
e|---10--x-x-10--x-x-x-x-13------10--x-x-10\3h5----------------------------------------|

e|-------------------------------------------------------------------------------------|
b|------------------------------------------10----10-----------------------------------|
g|---7--x-x-7--x-x-7--x-x-7--x-x-7-----7----12b14----12-10-----------------------------|
d|---7--x-x-7--x-x-7--x-x-7--x-x-7-----7--------------------12-------------------------|
a|---5--x-x-5--x-x-5--x-x-5--x-x-5--5--5-----------------------------------------------|
e|-------------------------------------------------------------------------------------|

e|-------------------------------------------------------------------------------------|
b|-------------------------------------------------------------------------------------|
g|--------10----10-12-12br-10--------12brbr--10----------10----12br--------------------|
d|--10-12----12-------------------12------------12-10-12----12-------------------------|
a|-------------------------------------------------------------------------------------|
e|-------------------------------------------------------------------------------------|

e|-------------------------------------------------------------------------------------|
b|----------------10-------------------------------------------------------------------|
g|--10-10---10-12-12br------------g-u-i-t-a-r-e--2-------------------------------------|
d|-----13b-------------12--------------------------------------------------------------|
a|-------------------------------------------------------------------------------------|
e|-------------------------------------------------------------------------------------|

e|-------------------------------------------------------------------------------------|
b|-------------------------------------------------------------------------------------|
g|-------------------------------------------------------------------------------------|
d|---12--x-x-12--x-x-x-x-15------12--x-x-12---------3h5p3------------------------------|
a|---12--x-x-12--x-x-x-x-13------12--x-x-10-----3h5------------------------------------|
e|---10--x-x-10--x-x-x-x-13------10--x-x-10\3h5----------------------------------------|

e|-------------------------------------------------------------------------------------|
b|-------------------------------------------------------------------------------------|
g|------------------------------------------------12br-10------------------------------|
d|---12--x-x-12--x-x-x-x-15------12--x-x-12--------------------------------------------|
a|---12--x-x-12--x-x-x-x-13------12--x-x-10--------------------------------------------|
e|---10--x-x-10--x-x-x-x-13------10--x-x-10--10-x--------------------------------------|

e|-------------------------------------------------------------------------------------|
b|-------------------------------------------------------------------------------------|
g|-------------------------------------------------------------------------------------|
d|---12--x-x-12--x-x-x-x-15------12--x-x-12---------3h5p3------------------------------|
a|---12--x-x-12--x-x-x-x-13------12--x-x-10-----3h5------------------------------------|
e|---10--x-x-10--x-x-x-x-13------10--x-x-10\3h5----------------------------------------|

e|-------------------------------------------------------------------------------------|
b|---------------------------------------------10----10-10-----------------------------|
g|---7--x-x-7--x-x-7--x-x-7--x-x-7--x--7-------12b14-------12-10-----------------------|
d|---7--x-x-7--x-x-7--x-x-7--x-x-7--x--7--------------------------12-------------------|
a|---5--x-x-5--x-x-5--x-x-5--x-x-5--x--5-----------------------------------------------|
e|-------------------------------------------------------------------------------------|

e|-------------------------------------------------------------------------------------|
b|-------------------------------------------------------------------------------------|
g|--------10----10-12-12br--10---------12br-12---12br------------10-----10-12b13r------|
d|--10-12----12-----------------12---------------------12--10-12-----12----------------|
a|-------------------------------------------------------------------------------------|
e|-------------------------------------------------------------------------------------|

e|-------------------------------------------------------------------------------------|
b|-------------------------------------------------------------------------------------|
g|--12b13r-10----(10)-----------10----10--10----------10-------------------------------|
d|--------------------(12)-(10)----12-----------10-12----------------------------------|
a|-------------------------------------------------------------------------------------|
e|-------------------------------------------------------------------------------------|

e|-------------------------------------------------------------------------------------|
b|-------------------------------------------------------------------------------------|
g|--x-x-x-x-x-x-x-x-x-x-x-x-<12>-<12>-<12>-<12>----------------------------------------|
d|-------------------------------------------------------------------------------------|
a|-------------------------------------------------------------------------------------|
e|-------------------------------------------------------------------------------------|


e|-------------------------------------------------------------------------------------|
b|-------------------------------------------------------------------------------------|
g|--x-x-x-x-x-x-x-x-x-x-x-x-x-x-12-12-12-12-12-12--------------------------------------|
d|-------------------------------------------------------------------------------------|
a|-------------------------------------------------------------------------------------|
e|-------------------------------------------------------------------------------------|


w/wah

e|-------------------------------------------------------------------------------------|
b|-------------------------------------------------------------------------------------|
g|--12br-10---------------10------10-12br-10---------------------10-12-10-12-----------|
d|----------12--12--10-12------12------------12--12--------10-12-----------------------|
a|---------------------------------------------------10-12-----------------------------|
e|-------------------------------------------------------------------------------------|

e|-------------------------------------------------------------------------------------|
b|-------------------------------------------------------------------------------------|
g|--12br-10---------------10------10-12br-10---------------------10--------------------|
d|----------12--12--10-12------12------------12--12--------10-12-----------------------|
a|---------------------------------------------------10-12-----------------------------|
e|-------------------------------------------------------------------------------------|


e|-------------------------------------------------------------------------------------|
b|-------------------------------------------------------------------------------------|
g|------------------------------------------------12br--------12br--------12br---------|
d|--12br-------------------------------------------------------------------------------|
a|-------------------------------------------------------------------------------------|
e|-------------------------------------------------------------------------------------|

e|-------------------------------------------------------------------------------------|
b|-------------------------------------------------------------------------------------|
g|--12br---12-10---------------10-12br---10----12-10-12br-10---------------------------|
d|---------------12--10--10/12---------------------------------------------------------|
a|-------------------------------------------------------------------------------------|
e|-------------------------------------------------------------------------------------|


e|-------------------------------------------------------------------------------------|
b|-------------------------------------------------------------------------------------|
g|---------10-12b13r--------------10----10-12-12br----10-12-10-----------10----10-12---|
d|--12--12------------10----10-12----12-------------------------15\10-12----12---------|
a|-------------------------------------------------------------------------------------|
e|-------------------------------------------------------------------------------------|


e|-------------------------------------------------------------------------------------|
b|-------------------------------------10--13----10----13------------------------------|
g|--12br---10-12-10-10----------10-12--12b-12pbr-12pbr-12br--10--------------10-12-----|
d|---------------------12-10/12----------------------------------------10-12-----------|
a|---------------------------------------------------------------10-12-----------------|
e|-------------------------------------------------------------------------------------|


e|-------------------------------------------------------------------------------------|
b|--10--13----10----13-----------------------------10---10---10------------------------|
g|--12b-12pbr-12pbr-12br--10--------------10-12----12b--12b--12br--10------------10-10-|
d|----------------------------------10-12------------------------------12--10-12-------|
a|----------------------------10-12----------------------------------------------------|
e|-------------------------------------------------------------------------------------|


e|-------------------------------------------------------------------------------------|
b|-------------------------------------------------------------------------------------|
g|------------------------------------------------------------------10-12--------------|
d|-----------------------------------------------------------3-5/12--------------------|
a|------8-10-10br--8---8-10-8-10br--8------8-10-10br--8----5---------------------------|
e|--10---------------------------------10----------------------------------------------|


e|-------------------------------------------------------------------------------------|
b|-----------------------------------------------------------------------10------------|
g|--12br--10-----------------10------10-12--12br-10----------10-12-12b-----------------|
d|-----------12--12-12-10/12------12----------------12----12---------------------------|
a|-------------------------------------------------------------------------------------|
e|-------------------------------------------------------------------------------------|


e|-----------------10-13-----13-15--13-15-15b16r------13--15-13-15b16r------13--15-13--|
b|-------10-13--13--------15----------------------15--------------------15-------------|
g|--12---------------------------------------------------------------------------------|
d|-------------------------------------------------------------------------------------|
a|-------------------------------------------------------------------------------------|
e|-------------------------------------------------------------------------------------|


e|--15b16r------13--15-13-----------15-------15b16-------------------------------------|
b|----------15------------15--13-15----15-13-------------------------------------------|
g|-------------------------------------------------------------------------------------|
d|-------------------------------------------------------------------------------------|
a|-------------------------------------------------------------------------------------|
e|-------------------------------------------------------------------------------------|


e|--15b16----15b16-15-15-15b16-15-15-15brbrbrb-----------------------------------------|
b|-------------------------------------------------------------------------------------|
g|--------------------------------------------------10-10------------------------------|
d|--------------------------------------------------------12---------------------------|
a|--------------------------------------------------------12---------------------------|
e|--------------------------------------------------------10---------------------------|

Thanks.
Tap to rate this tab
# A B C D E F G H I J K L M N O P Q R S T U V W X Y Z