Song name
# A B C D E F G H I J K L M N O P Q R S T U V W X Y Z

Arctic Monkeys - Perhaps Vampires Is Abit Strong tab

-------------------------------------------------------------------------------
			     Perhaps Vampires Is Abit Strong - Arctic Monkeys
------------------------------------------------------------------------------
Tabbed by: Danny Lambert
Email: dreamstation@gmail.com

Tuning: Standard

e|---------------------------------------------------------------------------|
B|---------------------------------------------------------------------------|
G|---4-2-------------------2-----------4-2-------------------2---------------|
D|--------4--------4-2-4------4-2-----------4--------4-2-4------4-2----------|
A|---------------------------------------------------------------------------|
E|---------------------------------------------------------------------------|

e|---------------------------------------------------------------------------|
B|---------------------------------------------------------------------------|
G|---------------------------------------------------------------------------|
D|---4-2------------------2--------------------------------------------------|
A|--------4--------4-2-4-----4-2---------------------------------------------|
E|---------------------------------------------------------------------------|


And then you break into the main song.. It isn't much but I hope it helps!
Tap to rate this tab
# A B C D E F G H I J K L M N O P Q R S T U V W X Y Z