Song name
# A B C D E F G H I J K L M N O P Q R S T U V W X Y Z

Arctic Monkeys - On The Run From The Mi5 tab

i am only 12 but it sounds cool and its a great song!!!!!by joss robinson
you will have to listen to the song for how fast to strum.
Intro:
e-----------------|
b-----------------|
g-----------------|
d-----------------|
a---10------------|  hold this note
e---8-------------|

e-----------------------------------------------|
b-----------------------------------------------|
g-----------------------------------------------|
d-----------------------------------------------|
a----1010---8-8---1010---8-8---1010---8-8---10--|
e----8--8---6-6---8--8---6-6---8--8---6-6---8---|   

       
e---------------------------|
b---------------------------|
g---------------------------|
d-------------1010--88------| x4
a----10101010--8-8--66------|
e----8-8-8-8----------------|

e-----------------------------------------------|
b-----------------------------------------------|
g-----------------------------------------------|
d----1010101010101010---------------------------|x3
a----8-8-8-8-8-8-8-8--1010--8-8---1010--8-8-----|
e---------------------8-8---6-6---8-8---6-6-----|

e--------------------|
b--------------------|
g--------------------|
d--------------------|
a----66666666-5555---|
e----44444444-3333---|

e------------------|
b------------------|
g------------------|
d-------10-8-------|  x2
a--10-4-8--6-8-7---|
e--8--2------6-5---|

e-----------------------------------------------|
b-----------------------------------------------|
g-----------------------------------------------|
d-----------------------------------------------|
a----1010---8-8---1010---8-8---1010---8-8---10--|
e----8--8---6-6---8--8---6-6---8--8---6-6---8---|   

       
e---------------------------|
b---------------------------|
g---------------------------|
d-------------1010--88------| x4
a----10101010--8-8--66------|
e----8-8-8-8----------------|

e-----------------------------------------------|
b-----------------------------------------------|
g-----------------------------------------------|
d----1010101010101010---------------------------|x3
a----8-8-8-8-8-8-8-8--1010--8-8---1010--8-8-----|
e---------------------8-8---6-6---8-8---6-6-----|

e--------------------|
b--------------------|
g--------------------|
d--------------------|
a----66666666-5555---|
e----44444444-3333---|

e------------------|
b------------------|
g------------------|
d-------10-8-------|  x3
a--10-4-8--6-8-7---|
e--8--2------6-5---|
Tap to rate this tab
# A B C D E F G H I J K L M N O P Q R S T U V W X Y Z