Song name
# A B C D E F G H I J K L M N O P Q R S T U V W X Y Z

Arctic Monkeys - Red Light Indicates Doors Are Secure tab

-------------------------------------------------------------------------------
           Arctic Monkeys - Red Light Indicates Doors Are Secured
-------------------------------------------------------------------------------
Tabbed by: Andy Wilkinson
Email: zerogravity2003@hotmail.com

Tuning: standard

Riff 1:
e|-----------------|
B|-----------------|
G|-----------------|
D|-----------------|
A|-------0-5-4-2p0-| a few times
E|-2-2-2-----------|
e|-----------------|

then they mix the first riff with this one:

Riff 2:
e|--------------|
B|--------------|
G|--------------|
D|-------4------|
A|---0-4---5-2p0|
E|-2------------|
e|--------------|

until: 'came and paid for her tropical reef...'
then it's

e|-------------------------------------------------|
B|-------------------------------------------------|
G|-------------------------------------------------|
D|-----------------------------------------2-2-3-3-|
A|-2-2-2-2-2-2-2-2-0-0-0-0-0-0-0-0-2-2-2-2---------|
E|-------------------------------------------------|

with the chords:

B
Sitting going backwards
A
And I didn't want to leave
B
I said it's High Green mate
E   F
Via Hillsborough please 


and it pretty much repeats riffs 1 and 2 until the next chorus


| /  slide up
| \  slide down
| h  hammer-on
| p  pull-off
| ~  vibrato
| +  harmonic
| x  Mute note
===============================================================================
Tap to rate this tab
# A B C D E F G H I J K L M N O P Q R S T U V W X Y Z