Guitaretab - guitar tabs
Song name
# A B C D E F G H I J K L M N O P Q R S T U V W X Y Z

Arctic Monkeys - You Probably Couldnt See For The Lights But You Were Looking Straight At Me tab

You Probably Couldnít See for the Lights but You Were Looking Straight at Me
Arctic monkeys
Tabbed by Ryan.c 


Listen to get the timing right.
U can send your feed back to chhang7@hotmail.com (thatís my email address by the way.)


Intro 


e------------------------------------------------|
B------------------------------------------------|
G-------------------------12-------------12------| x3
D-9-9-9-9-9-9-9---12-12-x-12-11--12-12-x-12-11---|
A-9-9-9-9-9-9-9---12-12-x-10-9--12-12-x-10--9----|
E-7-7-7-7-7-7-7---10-10-x----9--10-10-x-----9----|
e--------------------------------------------|
B--------------------------------------------|
G-------------------11-11-11-11-11-11-11-11--|
D--x-9-9--x-x-9-9---11-11-11-11-11-11-11-11--|  
A--x-9-9--x-x-9-9---9--9--9--9--9--9--9--9---|
E--x-7-7--x-x-7-7----------------------------|


Verse

e----------|
B----------|
G----------|
D--9-7-----|  
A------9---| repeats for a bit
E--------7-|

e--------------------------------|
B--------------------------------|
G--------------------------------|
D--9-7-------------------5-------|  
A------9-7---5--7-7--5-7---5-4---|
E--------------------------------|

Chorus

e------------------|
B------------------|
G---------9--11----|
D--9--12--9--11-12-|  
A--9--12--7--9--12-|
E--7--10--------10-|

This comes after a bit
e----------------------|
B----------------------|
G----------------------|
D--9-9--7-7------------|  
A-----------9-9--7-5---| 
E----------------------|


[ Tab from: http://www.guitaretab.com/a/arctic-monkeys/68257.html ]
Post chorus (a bit different then the intro)

e-----------------=-------------------------------------|
B-------------------------------------------------------|
G-------------------------------------------------------|
D-9-9-9-9-9/12\--9-9---7-7-7ó-7/9-9-9---7-7-7--7/9-9-9-7|  
A-9-9-9-9-9/12\--9-9------------------------------------| x2
E-7-7-7-7-7/10\--7-7------------------------------------|


Then the verse comes in again


Chorus 


e-------------------------------------------|
B-----7----------7--------------------------|
G-9-9---9-7--9-9---9-7-------------9-11-----|
D-----------------------9-7-9-7-12-9-11-11--|  
A-------------------------------12-7-9--11--| x3
E-------------------------------10------9---|
-
e-------------------------------------------------------------|
B-----7----------7--------------------------------------------|
G-9-9---9-7--9-9---9-7---11-11-11-11-11-11-11--11-9-7---------|
D-----------------------------------------------------9-------|  
A-------------------------------------------------------------| 
E-------------------------------------------------------------|


e------------------|
B------------------|
G---------9--11----|
D--9--12--9--11-12-|  
A--9--12--7--9--12-|
E--7--10--------10-|


Verse

e-------------|
B-------------|
G--12-11---9--|
D--12-11-9-9--|  
A--10-9--9-7--|
E--------7----| x3

e---------------------|
B---------------------|
G---------------------|
D--5--12---9-9-9-9-9-9|  
A--5--12---9-9-9-9-9-9|
E--3--10---7-7-7-7-7-7|





Related for You Probably Couldnt See For The Lights But You Were Looking Straight At Me tab