Song name
# A B C D E F G H I J K L M N O P Q R S T U V W X Y Z

Arctic Monkeys - Perhaps Vampires Is A Bit Strong But tab

Help us improve GuitareTab! Take a short survey!
-----------------------------------------------------------------------------
	  Perhaps Vampires Is A Bit Strong But... - Arctic Monkeys
-----------------------------------------------------------------------------

Tabbed by: William Poulin
Email: Poulin256@msn.com

If anyone can help me with the solos, and the Rhythm guitar that is played over the 
I would really apreciate it.
Enjoy.

Tuning:Eadgbe


Intro
e|-------------------------------------------------------------|
b|-------------------------------------------------------------|
g|-------------------------------------------------------------|
d|-9-7----------7------9-7----------7------------------2-------|
a|-----9--9-7-9---9-7------9--9-7-9---9-7-9-7-4--4-2-4---4-2---|
E|-------------------------------------------------------------|

e|-------------|
b|-------------|
g|-------66-5--|
d|-44-77-66-5--|
a|-44-77-44-3--|
E|-22-55-------|

Verse (I've seen your eyes as the fix on me...)
e|-------------|
b|-------------|
g|-------66----|
d|-44-77-66-77-|
a|-44-77-44-77-|
E|-22-55----55-|x8

Chorus (Cause all you people are vampires...)
e|-------------|
b|-------------|
g|-------------|
d|-9-11-7------|
a|-9-11-7------|
E|-7-9--5------|x4

Verse (Well I've seen your eyes...)
e|-------------|
b|-------------|
g|-------66----|
d|-44-77-66-77-|
a|-44-77-44-77-|
E|-22-55----55-|x8

Chorus (Cause all you people are vampires...)
e|-------------|
b|-------------|
g|-------------|
d|-9-11-7------|
a|-9-11-7------|
E|-7-9--5------|x8

Bridge (Breakdown)
e|------|  |-----------------|  |------------|
b|------|  |-----------------|  |------------|
g|------|  |-----------------|  |------------|
d|-5~-4-|  |-5-5-5-5-4-4-4-4-|  |-55555555-4-|
a|-5~-4-|  |-5-5-5-5-4-4-4-4-|  |-55555555-4-|
E|-3~-2-|x4|-3-3-3-3-2-2-2-2-|x4|-33333333-2-|x4

(All you people are vampires!)
e|-------------|  |----------|  |-------------|
b|-------------|  |----------|  |-------------|
g|-------------|  |----------|  |-------------|
d|-------------|  |----------|  |-------------|
a|-----2-3-2---|  |-----2-3~-|  |-----2-3-2---|
E|-2-5-------5-|x8|-2-5------|x7|-2-5-------5-|

Outro
e|-------------------------------------------------------------|
b|-------------------------------------------------------------|
g|-------------------------------------------------------------|
d|-9-7----------7------9-7----------7------------------2-------|
a|-----9--9-7-9---9-7------9--9-7-9---9-7-9-7-4--4-2-4---4-2---|
E|-------------------------------------------------------------|

e|--------------|
b|--------------|
g|-------66-----|
d|-44-77-66-44~-|
a|-44-77-44-44~-|
E|-22-55----22~-|

| ~ Let Ring
=============================================================================
Related for Perhaps Vampires Is A Bit Strong But tab