Song name
# A B C D E F G H I J K L M N O P Q R S T U V W X Y Z

Arctic Monkeys - Red Light Indicates Doors Are Secured tab

    Red Light Indicates Doors Are Secured - Arctic Monkeys

E |------------------|------------------|------------------|------------------|
B |------------------|------------------|------------------|------------------|
G |------------------|------------------|------------------|------------------|
D |------------------|------------------|------------------|------------------|
A |---------5--4-----|---------5--4-----|---------5--4-----|---------5--4-----|
E |-2-2-2-5------5-4-|-2-2-2-5------5-4-|-2-2-2-5------5-4-|-2-2-2-5------5-4-|
  |Guitar 2:
E |------------------|------------------|
B |------------------|------------------|
G |-1-1-1-1-1-1-1-11-|-1-1-1-1-1-1-1111-|
D |-1-1-1-1-1-1-1-11-|-1-1-1-1-1-1-1111-|etc…
A |------------------|------------------|
E |------------------|------------------|

E |------------------|------------------|------------------|------------------|
B |------------------|------------------|------------------|------------------|
G |------------------|------------------|------------------|------------------|
D |------------------|------------------|------------------|------------------|
A |---------5--4-----|---------5--4-----|---------5--4-----|---------5--4-----|
E |-2-2-2-5------5-4-|-2-2-2-5------5-4-|-2-2-2-5------5-4-|-2-2-2-5------5-4-|

E |------------------|------------------|------------------|------------------|
B |------------------|------------------|------------------|------------------|
G |------------------|------------------|------------------|------------------|
D |------------------|------------------|------------------|------------------|
A |---------5--4-----|---------5--4-----|---------5--4-----|------------------|
E |-2-2-2-5------5-4-|-2-2-2-5------5-4-|-2-2-2-5------5-4-|-2----------------|

E |------------------|------------------|------------------|------------------|
B |------------------|------------------|------------------|------------------|
G |------------------|------------------|------------------|------------------|
D |-------4----------|-------4----------|-------4----------|-------4----------|
A |-----4---5--4-----|-----4---5--4-----|-----4---5--4-----|-----4---5--------|
E |-2-5----------5-4-|-2-5----------5-4-|-2-5----------5-4-|-2-5--------------|

E |------------------|------------------|------------------|------------------|
B |------------------|------------------|------------------|------------------|
G |------------------|------------------|------------------|------------------|
D |-------4----------|-------4----------|-------4----------|-------4----------|
A |-----4---5--4-----|-----4---5--4-----|-----4---5--4-----|-----4---5--4-----|
E |-2-2----------5-4-|-2-2----------5-4-|-2-2----------5-4-|-2-2----------5-4-|

E |-----------------|-----------------|-----------------|
B |-----------------|-----------------|-----------------|
G |-----------------|-----------------|---------9-9-1010|
D |-9-9-9-9-9-9-9-9-|-7-7-7-7-7-7-7-7-|-9-9-9-9-9-9-1010|
A |-9-9-9-9-9-9-9-9-|-7-7-7-7-7-7-7-7-|-9-9-9-9-7-7-8-8-|
E |-7-7-7-7-7-7-7-7-|-5-5-5-5-5-5-5-5-|-7-7-7-7---------|

E |------------------|------------------|------------------|------------------|
B |------------------|------------------|------------------|------------------|
G |------------------|------------------|------------------|------------------|
D |------------------|------------------|------------------|------------------|
A |---------5--4-----|---------5--4-----|---------5--4-----|---------5--4-----|
E |-2-2-2-5------5-4-|-2-2-2-5------5-4-|-2-2-2-5------5-4-|-2-2-2-5------5-4-|

E |------------------|------------------|------------------|------------------|
B |------------------|------------------|------------------|------------------|
G |------------------|------------------|------------------|------------------|
D |-------4----------|-------4----------|-------4----------|-------4----------|
A |-----4---5--4-----|-----4---5--4-----|-----4---5--4-----|-----4---5--4-----|
E |-2-5----------5-4-|-2-5----------5-4-|-2-5----------5-4-|-2-5----------5-4-|

E |------------------|------------------|------------------|------------------|
B |------------------|------------------|------------------|------------------|
G |------------------|------------------|------------------|------------------|
D |-------4----------|-------4----------|-------4----------|-------4----------|
A |-----4---5--4-----|-----4---5--4-----|-----4---5--4-----|-----4---5--4-----|
E |-2-5----------5-4-|-2-5----------5-4-|-2-5----------5-4-|-2-5----------5-4-|

E |-----------------|-----------------|-----------------|-----------------|
B |-----------------|-----------------|-----------------|-----------------|
G |-----------------|-----------------|-----------------|-----------------|
D |-9-9-9-9-9-9-9-9-|-7-7-7-7-7-7-7-7-|-9-9-9-9-9-9-9-9-|-7-7-7-7-7-7-7-7-|
A |-9-9-9-9-9-9-9-9-|-7-7-7-7-7-7-7-7-|-9-9-9-9-9-9-9-9-|-7-7-7-7-7-7-7-7-|
E |-7-7-7-7-7-7-7-7-|-5-5-5-5-5-5-5-5-|-7-7-7-7-7-7-7-7-|-5-5-5-5-5-5-5-5-|

E |-----------------|-----------------|-----------------|
B |-----------------|-----------------|-----------------|
G |-----------------|-----------------|---------9-9-1010|
D |-9-9-9-9-9-9-9-9-|-7-7-7-7-7-7-7-7-|-9-9-9-9-9-9-1010|
A |-9-9-9-9-9-9-9-9-|-7-7-7-7-7-7-7-7-|-9-9-9-9-7-7-8-8-|
E |-7-7-7-7-7-7-7-7-|-5-5-5-5-5-5-5-5-|-7-7-7-7---------|

   Solo:
E |-----------------------------------------------------------------------------|
B |-----------------------------------------------------------------------------|
G |-----------------------------------------------------------------------------|
D |----------------------------------------------------------------2------2-2-4-|
A |-9-7-7---------------------------------------------------2-4--4---4--4-------|
E |--------9-7--5-7-5---5-7-5-7-5--5-7-5-7-5--2-0-2--0-2--5---------------------|

E |--------------------------------------------------------------------------------|
B |--------------------------------------------------------------------------------|
G |------2--------4-4-4-4-4-2-------2----2-4--4-4-4-4-4-2-------2---2-4--4-4-4-4-4-|
D |-2-4-----4-2-4-------------4-2-4----4------------------4-2-4---4----------------|
A |--------------------------------------------------------------------------------|
E |--------------------------------------------------------------------------------|
                                                           H
E |--------------------------------------------------------------------------------|
B |--------------------------------------------------------------------------------|
G |-2--------2----2-4-2-4/6-4-2-4--2-4/6-4-2-4--2~~~~~~~~----------4-4-4-4-2-2-2-2-|
D |----4-2-4----4------------------------------------------------------------------|
A |------------------------------------------------------0h[7]---------------------|
E |------------------------------------------------------0h[7]---------------------|

E |------------------------------0----|
B |------------------------------0----|
G |-------------------2-4=b5====-0----|
D |-4-4-4-4-2-2-2-2-4------------0----|
A |-----------------------------------|
E |-----------------------------------|
   End Solo

E |-----------------|-----------------|-----------------|
B |-----------------|-----------------|-----------------|
G |-----------------|-----------------|---------9-9-1010|
D |-9-9-9-9-9-9-9-9-|-7-7-7-7-7-7-7-7-|-9-9-9-9-9-9-1010|
A |-9-9-9-9-9-9-9-9-|-7-7-7-7-7-7-7-7-|-9-9-9-9-7-7-8-8-|
E |-7-7-7-7-7-7-7-7-|-5-5-5-5-5-5-5-5-|-7-7-7-7---------|

E |------------------|------------------|------------------|------------------|
B |------------------|------------------|------------------|------------------|
G |------------------|------------------|------------------|------------------|
D |-------4----------|-------4----------|-------4----------|-------4----------|
A |-----4---5--4-----|-----4---5--4-----|-----4---5--4-----|-----4---5--4-----|
E |-2-5----------5-4-|-2-5----------5-4-|-2-5----------5-4-|-2-5----------5-4-|

E |------------------|------------------|------------------|-----------------||
B |------------------|------------------|------------------|-----------------||
G |------------------|------------------|------------------|-----------------||
D |------------------|------------------|------------------|-----------------||
A |---------5--4-----|---------5--4-----|---------5--4-----|-----------------||
E |-2-2-2-5------5-4-|-2-2-2-5------5-4-|-2-2-2-5------5-4-|-2---------------||

Tap to rate this tab
 
# A B C D E F G H I J K L M N O P Q R S T U V W X Y Z