Song name
# A B C D E F G H I J K L M N O P Q R S T U V W X Y Z

Arctic Monkeys - No Buses tab

No Buses
Arctic Monkeys


i tabbed this with out a capo because i don't like capos and i just use bar chords...

Intro
e|-7-4-4---5--9-7---5--9-10--9---5-7-7-7---|
B|-9-5-4---5-10-9---5-10-10-11---5-7-9-9---|
G|-9-6-4---6--9-9---6--9-12-10---6-8-8-9---|
D|-------------------------------------9---|
A|-------------------------------------7---|
E|-----------------------------------------|


Verse
   E     C#m  G#m   E      A    F#m   E    E      A    F#m   G#m   C#
e|-7-----9----11----7----|-5-----9----7----7----|-5-----9----11-----9----|
B|-9-----9----12----9----|-5----10----9----9----|-5----10----12-----9----|
G|-9-----9----13----9----|-6----11----9----9----|-6----11----13-----9----|
D|-9----11----13----9----|-7----11----9----9----|-7----11----13----11----|
A|-7----11----11----7----|-7-----9----7----7----|-7-----9----11----11----|
E|-------9---------------|-5--------------------|-5-----------------9----|

   F#m   B    E    E
e|--9----7----7----7----|
B|-10----7----9----9----|
G|-11----8----9----9----|
D|-11----9----9----9----|
A|--9----9----7----7----|
E|-------7--------------|


Chorus
   A    G#   C#m  F#m           A  A  A  G# G# G#
e|-5----4----4-----9------x2--|-5--5--5--4--4--4---|
B|-5----4----5----10----------|-5--5--5--4--4--4---|
G|-6----5----6----11----------|-6--6--6--5--5--5---|
D|-7----6----6----11----------|-7--7--7--6--6--6---|
A|-7----6----4-----9----------|-7--7--7--6--6--6---|
E|-5----4---------------------|-5--5--5--4--4--4---|


Bridge
   C#m  G#   G# Gm F#m
e|-4----4----11-10--9---x2-|
B|-5----4----12-11-10------|
G|-6----5----13-12-11------|
D|-6----6----13-12-11------|
A|-4----6----11-10--9------|
E|------4------------------|


Outro
e|-7-4-4---5--9-7---5--9-10--9---5-7-7-7---5-7-7-7---------7---------|
B|-9-5-4---5-10-9---5-10-10-11---5-7-9-9---5-7-9-9-----7-9---9-7-----|
G|-9-6-4---6--9-9---6--9-12-10---6-8-8-9---6-8-8-9---9-----------9---|
D|-------------------------------------9---------9-------------------|
A|-------------------------------------7---------7-------------------|
E|-------------------------------------------------------------------|


Order

Intro   x1
Verse   X2
Chorus  X1
Verse   X1
Chorus  X1
Bridge  X1
Outro   X1
Tap to rate this tab
 
# A B C D E F G H I J K L M N O P Q R S T U V W X Y Z