Song name
# A B C D E F G H I J K L M N O P Q R S T U V W X Y Z

Arctic Monkeys - Cigarette Smoker Fiona tab

-------------------------------------------------------------------------------
			     Cigarette Smoker Fiona - Arctic Monkeys
-------------------------------------------------------------------------------
Tabbed by: San Miguel
Email: sanmiguel1@gmail.com

Tuning: Standard
Intro:
Guitar 1

e|---------------------------------------------------------------------------|
B|---------------------------------------------------------------------------|
G|---------------------------------------------------------------------------|
D|-7-7-7---7-7-7---7-7-7---7-7-7s14------------------------------------------|
A|-7-7-7---7-7-7---7-7-7---7-7-7s14------------------------------------------|
E|-5-5-5---5-5-5---5-5-5---5-5-5s12------------------------------------------|x3

Guitar 2(after guitar 1 has played though once)
e|-----------------------------------------------------------------------------|
B|-----------------------------------------------------------------------------|
G|---5----5-7/------5-7--------------------------------------------------------|
D|-7----7--------5-7------9s7s5------------------------------------------------|
A|-----------------------------------------------------------------------------|
E|-----------------------------------------------------------------------------|x2

Verse 1
e|---------------------------------------------------------------------------|
B|---------------------------------------------------------------------------|
G|----------------------7-7-7------------------------------------------------|
D|-7-7-7--7-7-7--3-3-3--7-7-7------------------------------------------------|
A|-7-7-7--7-7-7--3-3-3--5-5-5------------------------------------------------|
E|-5-5-5--5-5-5--1-1-1-------------------------------------------------------|x4

Chorus:
Guitar 1                                          |----------------------------|
e|-----------------------------------------------------------------------------|
B|-----------------------------------------------------------------------------|
G|-----------------5-5-5-5-5-5-5-5-9-9-9-9-9-9-9-9-9-7-9-10-9-7----------------|
D|-7-7-7-7-7-7-7-7-5-5-5-5-5-5-5-5-9-9-9-9-9-9-9-9-9-7-9-10-9-7----------------|
A|-7-7-7-7-7-7-7-7-3-3-3-3-3-3-3-3-7-7-7-7-7-7-7-7-7-5-7-8--7-5----------------|
E|-5-5-5-5-5-5-5-5-------------------------------------------------------------|x2

Guitar 2
e|---------------------------------------------------------------------------|
B|---------------------------------8-----------------------------------------|
G|-----------5-5-5-7-5-9-9-9-9-7-9---9-7-------------------------------------|
D|-7-7-7-5-7-----------------------------------------------------------------|
A|---------------------------------------------------------------------------|
E|---------------------------------------------------------------------------|x2

Bridge 1:
Guitar 2
e|-----------------------------------------------------------------------------------|
B|-----------------------------------------------------------------------------------|
G|---5----5-7/------5-7--9-7-5----5----5-7/------5-7--9p7-5-7-5----------------------|
D|-7----7--------5-7-------------7----7--------5-7-----------------------------------|
A|-----------------------------------------------------------------------------------|
E|-----------------------------------------------------------------------------------|

Order:
Intro
Verse 1
Chorus (Highlighted part in Guitar 1 only played once)
Bridge 1
Verse 2 (Bass only)
Chorus
Bridge 2 (same as chorus only with slightly different timing)
Chorus (last bar extended 4 times)


| /  slide up
|   slide down
| h  hammer-on
| p  pull-off
| ~  vibrato
| +  harmonic
| x  Mute note
===============================================================================
Tap to rate this tab
 
# A B C D E F G H I J K L M N O P Q R S T U V W X Y Z