Song name
# A B C D E F G H I J K L M N O P Q R S T U V W X Y Z

Arctic Monkeys - Who The Fuck Are Arctic Monkeys tab

---------------------------------------------------|
B--------------------------------------------------|
G--------------------------------------------------|
D--------------------------------------------------|
A----------9-7-----------------9-7-----------------|
E-5-7--7-------10------7--7-----10----5-7-5--------|

the solo at 2:13 to 2:40

E-----------------------------------------------------------|
B-----------------------------------------------------------|
G-----------------------------------------------------------|
D-----------------------------------------------------------|
A-----------------------------2--2-2S5-5S7-7S9-9------------|
E-7--5-7---5-7-5-2---2-2-5----------------------------------|

E-----------------------------------------------------------|
B-----------------------------------------------------------|
G--------------------------------9-7------------------------|
D-----9-7-----------------------------9-7-------------------|
A-12-------9-7--5S7--9-7-----------------5-7--7S9-5---------|
E-----------------------------------------------------------|

E-----------------------------------------------------------|
B-----------------------------------------------------------|
G-----------------------------------------------------------|
D-----------------------------------------------------------|
A-5S7-7-5-7--7-5-7-5----------------------------------------|
E-------------------------5-7-5-7--7-5-7--7-5-2-------------|
Tap to rate this tab
 
# A B C D E F G H I J K L M N O P Q R S T U V W X Y Z