Song name
# A B C D E F G H I J K L M N O P Q R S T U V W X Y Z

Arctic Monkeys - Put Your Dukes Up John tab

Arctic Monkeys-Put Your Dukes Up John
Guitarist- Jamie Cook, Alex Turner

No other tabs sounded good so I decided I would give it a shot.

STANDARD TUNING

b=BEND
t=TREMELO PICKING
~=LET RING OUT
/=SLIDE DOWN

*INTRO*
(-55-11-55-11-)
(-55-11-55-11-)
(-66-22-66-22-)Repeat this for a while
(-77-33-77-33-)
(-77-33-77-33-)
(-55-11-55-11-)

(------------)
(-10-13-10---)
(----------9-)
(------------)
(------------)
(------------)

*2ND INTRO*
(--------------)  (------------)
(-10-8-------8-)  (-10-8-----8-)
(------9-7-9---)or(------999---)Which other one works for you
(--------------)  (------------)
(--------------)  (------------)
(--------------)  (------------)

Then the guitars rest and the bass and drums play

(REPEAT INTRO)

(-555555555555555555555555555666-)
(-555555555555555555555555555666-)
(-666666666666666666666666666777-)
(-777777777777777777777777777888-)
(-777777777777777777777777777888-)
(-555555555555555555555555555666-)

(----------------------------)x2
(-77-55----55----33----------)
(-77-55-66-55-44-33-22222222-)
(-77-55-77-55-55-33-33333333-)
(-55-33-77-33-55-11-33333333-)
(-------55----33----11111111-)

(--------------------------------------)
(-10~-13~-10~--------------------------)
(-------------9~-9999-9999-99/7~-77/5~-)
(--------------------------------------)
(--------------------------------------)
(--------------------------------------)

(REPEAT INTRO)

(-555555555555555555555555555666-)
(-555555555555555555555555555666-)
(-666666666666666666666666666777-)
(-777777777777777777777777777888-)
(-777777777777777777777777777888-)
(-555555555555555555555555555666-)


(----------------------------)
(-77-55----55----33----------)
(-77-55-66-55-44-33-22222222-)
(-77-55-77-55-55-33-33333333-)
(-55-33-77-33-55-11-33333333-)
(-------55----33----11111111-)

*SOLO*
(------------------------------------------)
(---------8-10-10b-----10t-8t--------------)
(-----7-9------12b-14t--------9t-7t--------)
(7-10-------------------------------10t-7t-)
(------------------------------------------) 
(------------------------------------------)

(------(x3)|-----------)
(-10-8---8-|-10-8-11-8-)
(------9---|-----------)
(----------|-----------)
(----------|-----------)
(----------|-----------)


(-555555555555555555555555555666-)
(-555555555555555555555555555666-)
(-666666666666666666666666666777-)
(-777777777777777777777777777888-)
(-777777777777777777777777777888-)
(-555555555555555555555555555666-)

Hope that helps you out on the song
Tap to rate this tab
 
# A B C D E F G H I J K L M N O P Q R S T U V W X Y Z