Song name
# A B C D E F G H I J K L M N O P Q R S T U V W X Y Z

Arctic Monkeys - Teddy Picker tab

Teddy Picker - Arctic monkeys

i caught almost the whole song from the other tabs... but i think thas the right way to play thank ya!


From 00:00 to 00:27

e[---------]    e[-----------]    
B[---------]    B[-----------]    
G[---------](x1)G[-----------](x3)
D[---------]    D[-----------]    
A[-----6-5-]    A[-------6-5-]    
E[-5-5-----]    E[-4-5-5-----]    

e[-----------]    e[-----------]    e[-----------]    e[-----------]
B[-----------]    B[-----------]    B[-----------]    B[-----------]
G[-----------]    G[-----------]    G[-----------]    G[-----------]
D[-----------](x1)D[-----------](x1)D[-----------](x1)D[-----------](x9)
A[-----------]    A[-----------]    A[-3-----6-5-]    A[-------6-5-]
E[-5-0-0-4-0-]    E[-0-0-0-4-0-]    E[---5-5-----]    E[-4-5-5-----]

From 00:27 to 00:39

e[-------] [----] [-------] [----] [-------] [----]
B[-------] [----] [-------] [----] [-------] [----]
G[-14-14-] [----] [-14-14-] [----] [-14-14-] [----]
D[-14-14-] [----] [-14-14-] [----] [-14-14-] [----]
A[-12-12-] [----] [-12-12-] [----] [-12-12-] [----]
E[-------] [----] [-------] [----] [-------] [----]

from 00:39 to 00:51

e[-------------|---------|-------------|-------------]
B[-------------|---------|-------------|-------------]
G[-10-10-10-10-|-9-9-9-9-|-14-14-14-14-|-14-14=14-14-]
D[-10-10-10-10-|-9-9-9-9-|-14-14-14-14-|-14-14=14=14-]
A[-8--8--8--8--|-7-7-7-7-|-12-12-12-12-|-12-12-12-12-]
E[-------------|---------|-------------|-------------]

e[-------------|---------|-------------|-------------]
B[-------------|---------|-------------|-------------]
G[-10-10-10-10-|-9-9-9-9-|-88888888888-|-88888888888-]
D[-10-10-10-10-|-9-9-9-9-|-88888888888-|-88888888888-]
A[-8--8--8--8--|-7-7-7-7-|-66666666666-|-66666666666-]
E[-------------|---------|-------------|-------------]

from 00:51 to 00:58

e[------------]
B[------------]
G[------------]
D[------------](x4)
A[--------6-5-]
E[-5--5-5-----]

from 00:58 to 01:09

e[-------] [----] [----] [-------] [----] [----]
B[-------] [----] [----] [-------] [----] [----]
G[-14-14-] [-14-] [----] [-14-14-] [----] [-14-]
D[-14-14-] [-14-] [----] [-14-14-] [----] [-14-]
A[-12-12-] [-12-] [----] [-12-12-] [----] [-12-]
E[-------] [----] [----] [-------] [----] [----]

From 01:09 to 01:23

e[---------]    e[-----------]    e[-----]
B[---------]    B[-----------]    B[-----]
G[---------](x1)G[-----------](x6)G[-----](x1)
D[---------]    D[-----------]    D[-----]
A[-----6-5-]    A[-------6-5-]    A[-----]
E[-5-5-----]    E[-4-5-5-----]    E[-4-5~]

From 01:23 to 01:35

e[-------------|---------|-------------|-------------]
B[-------------|---------|-------------|-------------]
G[-10-10-10-10-|-9-9-9-9-|-14-14-14-14-|-14-14=14-14-]
D[-10-10-10-10-|-9-9-9-9-|-14-14-14-14-|-14-14=14=14-]
A[-8--8--8--8--|-7-7-7-7-|-12-12-12-12-|-12-12-12-12-]
E[-------------|---------|-------------|-------------]

e[-------------|-----------]
B[-------------|-----------]
G[-10-10-10-10-|-----------]
D[-10-10-10-10-|-----------]
A[-8--8--8--8--|-5-3-------]
E[-------------|-----7-5-0~]

From 01:35 to 02:02

SOLO

e[-------------------------15-15----------]
B[-5-5-5/18-17-17-17-17-17----------------]
G[----------------------------------------](x2) 
D[----------------------------------------]
A[----------------------------------------]
E[----------------------------------------]

e[-----17-------------------15-15---------]
B[-5-5----18-17-17-17-17-17---------------]
G[----------------------------------------] 
D[----------------------------------------]
A[----------------------------------------]
E[----------------------------------------]

e[-----17---------------------------------]
B[-5-5----18-17-15-15-13-13-12-12-10-10-8-]
G[----------------------------------------] 
D[----------------------------------------]
A[----------------------------------------]
E[----------------------------------------]



From 02:02 to 02:15

e[-------------|---------|-------------|-------------]
B[-------------|---------|-------------|-------------]
G[-10-10-10-10-|-9-9-9-9-|-14-14-14-14-|-14-14=14-14-]
D[-10-10-10-10-|-9-9-9-9-|-14-14-14-14-|-14-14=14=14-]
A[-8--8--8--8--|-7-7-7-7-|-12-12-12-12-|-12-12-12-12-]
E[-------------|---------|-------------|-------------]

e[-------------|---------|-------------|-------------]
B[-------------|---------|-------------|-------------]
G[-10-10-10-10-|-9-9-9-9-|-88888888888-|-88888888888-]
D[-10-10-10-10-|-9-9-9-9-|-88888888888-|-88888888888-]
A[-8--8--8--8--|-7-7-7-7-|-66666666666-|-66666666666-]
E[-------------|---------|-------------|-------------]

From 02:15 to 02:27

e[-----------|---------|----------|-------------]
B[-----------|---------|----------|-------------]
G[-10--------|-9-------|-14-------|-88888888888-]
D[-10--------|-9-------|-14-------|-88888888888-](x2)
A[-8---------|-7-------|-12-------|-66666666666-]
E[-----------|---------|----------|-------------]

e[--5-5/-17-17-17-17-17--]
B[--5-5------------------]
G[-----------------------](x2)
D[-----------------------]
A[-----------------------]
E[-----------------------]

e[--5-5/-17-17-17-17-17-17-17-15-15-15-13-13-13-12----------12/17-]
B[--5-5--------------------------------------------13-12----------]
G[-------------------------------------------------------14-------]
D[----------------------------------------------------------------]
A[----------------------------------------------------------------]
E[----------------------------------------------------------------]

From 02:27 to END

e[---------]    e[-----------]    
B[---------]    B[-----------]    
G[---------](x1)G[-----------](x3)
D[---------]    D[-----------]    
A[-----6-5-]    A[-------6-5-]    
E[-5-5-----]    E[-4-5-5-----]    

e[-----------]    e[-----------]    e[------]    e[---]
B[-----------]    B[-----------]    B[------]    B[---]
G[-----------]    G[-----------]    G[------]    G[-8-]
D[-----------](x1)D[-----------](x1)D[------](x1)D[-8-]
A[-----------]    A[-----------]    A[-3----]    A[-6-]
E[-5-0-0-4-0-]    E[-0-0-0-4-0-]    E[---5--]    E[---]
Tap to rate this tab
# A B C D E F G H I J K L M N O P Q R S T U V W X Y Z