Guitaretab - guitar tabs
Song name
# A B C D E F G H I J K L M N O P Q R S T U V W X Y Z

Arctic Monkeys - Bad Thing tab

----------------------------------------------------------------------------
ARTIST: Arctic Monkeys
SONG: Bad Thing
ALBUM: Favourite Worst Nightmare
----------------------------------------------------------------------------
TUNING: Standard (EADGBe)
TABBED BY: Ronaldo Sousa (ronaldo.fisio@gmail.com)
----------------------------------------------------------------------------

SOLO
[ Tab from: http://www.guitaretab.com/a/arctic-monkeys/87995.html ]
e|------------------------------------------|
B|---555-----555------------------5---------|
G|-------7-5-----7-5--------5-7-5---5-------|
D|--------------------7-5-7-----------------|  2x
A|------------------------------------------|
E|------------------------------------------|

e|---5--------------------------------------|
B|------5--8--5--8--5-----------------------|
G|---------------------5-7-9----------------|
D|------------------------------------------|  
A|------------------------------------------|
E|------------------------------------------|

e|------------------------------------------|
B|---8-10-8-10-12-10-8-10-8-10-8-10-7-------|
G|------------------------------------------|
D|------------------------------------------|  
A|------------------------------------------|
E|------------------------------------------|  


Arctic Monkeys ownz!
Related for Bad Thing tab
Advertisement will be closed in 10 seconds