Song name
# A B C D E F G H I J K L M N O P Q R S T U V W X Y Z

Arctic Monkeys - D Is For Dangerous tab

Help us improve GuitareTab! Take a short survey!
Tuning: Standard


Chorus 

Both Guitars
|----------------------------------------------------------------------|
|----------------------------------------------------------------------|
|-1010101010--8--5---1010101010--8--5------8--11-11-11-----8--11-11-11-|
|-1010101010--8--5---1010101010--8--5--10--8--11-11-11-10--8--11-11-11-| X1
|-8-8-8-8-8---6--3---8-8-8-8-8---6--3--10--6--9--9--9--10--6--9--9--9--|
|--------------------------------------8---------------8---------------|

Alex Turner
|---------------------------------------------------------------|
|---------------------------------------------------------------|
|-1010101010--8--5---1010101010--8--5---------------------------|
|-1010101010--8--5---1010101010--8--5--10--10-X-X--8-X-X--6-6-5-| X1
|-8-8-8-8-8---6--3---8-8-8-8-8---6--3--10--10-X-X--8-X-X--6-6-5-|
|--------------------------------------8---8--X-X--6-X-X--4-4-3-|

Jamie Cook
|--------------------------------------------------------------|
|--------------------------------------------------------------|
|-1010101010--8--5---1010101010--8--5---------8----------------|
|-1010101010--8--5---1010101010--8--5--10--10---8--8-8--6-6--5-| X1
|-8-8-8-8-8---6--3---8-8-8-8-8---6--3--------------------------|
|--------------------------------------------------------------|


Intrumental Section 

Alex Turner
|--------------------------------------------| 
|--------------------------------------------|
|-------------12--12-------------------------|
|-10-10-10-13-12--12---8--10-10-10--8--5--5--| X8
|-10-10-10-13-10--10---8--10-10-10--8--5--5--|
|-8--8--8--11----------6--8--8--8---6--3--3--|

Jamie Cook
|-------------------------------------|
|-------------------------------------|
|-------------------------------------|
|-10--8-10--8-------------------------| X8
|-------------10----10-8----8-10------|
|------------------------11--------8--| 
                                                                

Bridge

Guitar 1
|------|
|------|
|------|
|-10~~-|
|------|
|------|
                           

Intrumental 2 / Outro

Alex Turner
|----------------------------------------------------------------------|
|----------------------------------------------------------------------|
|-1010101010--8--5---1010101010--8--5------8--11-11-11-----8--11-11-11-|
|-1010101010--8--5---1010101010--8--5--10--8--11-11-11-10--8--11-11-11-| X3
|-8-8-8-8-8---6--3---8-8-8-8-8---6--3--10--6--9--9--9--10--6--9--9--9--|
|--------------------------------------8---------------8---------------|

Jamie Cook
|-------------------------------------|
|-------------------------------------|
|-------------------------------------|
|-10--8-10--8-------------------------| X3
|-------------10----10-8----8-10------|
|------------------------11--------8--| 

Both Guitars

|----------------------------|
|----------------------------|
|-11-11-11-11-11-11-11-11-11-|
|-11-11-11-11-11-11-11-11-11-|
|-9--9--9--9--9--9--9--9--9--|
|----------------------------|

Alex Turner
|---------------------------------------------------------------|
|---------------------------------------------------------------|
|-1010101010--8--5---1010101010--8--5---------------------------|
|-1010101010--8--5---1010101010--8--5--10--10-X-X--8-X-X--6-6-5-| X1
|-8-8-8-8-8---6--3---8-8-8-8-8---6--3--10--10-X-X--8-X-X--6-6-5-|
|--------------------------------------8---8--X-X--6-X-X--4-4-3-|

Jamie Cook
|---------------------------------------------------------|
|---------------------------------------------------------|
|---------------------------------------------------------|
|-10--8-10--8----------------------------8----------------| X1
|-------------10----10-8----8-10--10--10---8--8-8--6-6--5-|
|------------------------11-------------------------------| 


| /  slide up
| \  slide down
| h  hammer-on
| p  pull-off
| ~  vibrato
| +  harmonic
| x  Mute note
========================================================================
Related for D Is For Dangerous tab