Song name
# A B C D E F G H I J K L M N O P Q R S T U V W X Y Z

Arctic Monkeys - If You Were There Beware tab

Hiya, this is my first tab on here but im sure its 100%.
This is the ninth track of the Monkeys' new album Favorite Worst Nightmare.

Anyway, enjoy x

==================================

Tabbed By: hxc___robb
Email: hxc___robb@hotmail.co.uk

==================================

Tuning: Standard /EADGBe

Tempo: 135 bpm

Time Signature: 4/4

Key Signature: Em

==================================
Intro -

Gtr. 2 (Clean Tone)
x2
||------------------|-----------------|-----------------|------------------||
||------------------|-----------------|-----------------|------------------||
||------------------|-----------------|-----------------|------------------||
||-----5-------5----|----5-------5----|----5-------5----|----5-------5-----||
||--7-----6-7-----6-|-7-----6-7-----6-|-7-----6-7-----6-|-7-----6-7-----6--||
||------------------|-----------------|-----------------|------------------||

Gtr. 1 (Overdrive)
x2
||----------------------|---------------------|---------------|-----------------||
||----------------------|---------------------|---------------|-----------------||
||----------------------|---------------------|---------------|-----------------||
||----------------------|---------------------|---------------|-----------------||
||-----10--------10-----|-----10--------10----|-5-3--3-3-3--3-|-7-7--7-9-9-9--9-||
||--0------11-0------11-|--0------11-12-----7-|---------------|-----------------||

Gtr. 2  (Overdrive)
x2
||------------------|------------------|----------------|----------------||
||-----8-------8----|-----8-------8----|--------8-7~----|--------8-7~----||
||--9-----8-9-----8-|--9-----8-9-----8-|-----9----------|-----9----------||
||------------------|------------------|--10------------|--10------------||
||------------------|------------------|----------------|----------------||
||------------------|------------------|----------------|----------------||

Gtr. 1 (Overdrive)
x1
||----------------------|---------------------|---------------|-----------------||
||----------------------|---------------------|---------------|-----------------||
||----------------------|---------------------|---------------|-----------------||
||----------------------|---------------------|---------------|-----------------||
||-----10-----.---------|-----10-----.--------|-5-3--3-3-3--3-|-7-7--7-9-9-9--9-||
||--0------11-0---------|--0------11-0--------|---------------|-----------------||

Gtr. 2  (Overdrive)
x1
||------------------|------------------|----------------|----------------||
||----------.-------|-----8----.-------|--------8-7-----|--------8-7~----||
||--9-----8-9-------|--9-----8-9-------|-----9----------|-----9----------||
||------------------|------------------|--10------------|--10------------||
||------------------|------------------|----------------|----------------||
||------------------|------------------|----------------|----------------||

Gtr. 1 (Overdrive)
x1
||----------------------|---------------------|---------------|-----------------||
||----------------------|---------------------|---------------|-----------------||
||----------------------|---------------------|---------------|-----------------||
||----------------------|---------------------|---------------|-----------------||
||-----10--------10-----|-----10--------10----|-5-3--3-3-3--3-|-7-7--7-9-9-9--9-||
||--0------11-0------11-|--0------11-12-----7-|---------------|-----------------||

Gtr. 2  (Overdrive)
x1
||------------------|------------------|----------------|----------------||
||-----8-------8----|-----8-------8----|--------8-7~----|--------8-7~----||
||--9-----8-9-----8-|--9-----8-9-----8-|-----9----------|-----9----------||
||------------------|------------------|--10------------|--10------------||
||------------------|------------------|----------------|----------------||
||------------------|------------------|----------------|----------------||

==================================
Verse -

Gtr. 1 (Slight Overdrive + Heavy Tremolo)
x4
||-0~---------------|-----------------|-0~---------------|-----------------||
||-0~---------------|-----------------|-1~---------------|-----------------||
||-0~---------------|-----------------|-0~---------------|-----------------||
||-2~---------------|-----------------|-2~---------------|-----------------||
||-2~---------------|-----------------|-3~---------------|-----------------||
||-0~---------------|-----------------|-0~---------------|-----------------||

==================================
Middle 8 -

Gtr. 1 (Light Overdrive)
x2
||---------------------|---------------------|---------------------|---------------------||
||----8---------12-----|----8---------12-----|----8---------12-----|----8---------12-----||
||--9---9----11----11--|--9---9----11----11--|--9---9----11----11--|--9---9----11----11--||
||---------------------|---------------------|---------------------|---------------------||
||---------------------|---------------------|---------------------|---------------------||
||---------------------|---------------------|---------------------|---------------------||

Gtr. 2 (Light Overdrive)
x2
||---------------------|----------------------|---------------------|--------------------||
||---------------------|----------------------|---------------------|--------------------||
||---------------------|----------------------|---------------------|--------------------||
||----5--------9-------|----5--------9--------|----5--------9-------|----5-------9-------||
||--7---7----9---9-----|--7---7----9---9------|--7---7----9---9-----|--7---7---9---9-----||
||---------------------|----------------------|---------------------|--------------------||

==================================
Pre-Verse -

Gtr. 1 + 2 (Slight Overdrive + Heavy Tremolo)
x2
||-----------------|-----------------|------------------|-----------------||
||-12~-------------|-----------------|-8~---------------|-----------------||
||-12~-------------|-----------------|-9~---------------|----8~-----------||
||-14~-------------|-----------------|-10~--------------|-----------------||
||-----------------|-----------------|------------------|-----------------||
||-----------------|-----------------|------------------|-----------------||

Gtr. 2 (Heavy Tremolo)
x2
||-0~---------------|-----------------|-0~---------------|-----------------||
||-0~---------------|-----------------|-1~---------------|-----------------||
||-0~---------------|-----------------|-0~---------------|-----------------||
||-2~---------------|-----------------|-2~---------------|-----------------||
||-2~---------------|-----------------|-3~---------------|-----------------||
||-0~---------------|-----------------|-0~---------------|-----------------||

==================================
InstruMENTAL -

Gtr.1 + 2 (Distortion)
x2
||--------------|-------------|------------|---------------||
||--------------|-------------|------------|---------------||
||--------------|-------------|------------|---------------||
||--------------|-------------|------------|---------------||
||--------------|---3-3-3-2-2-|-2--------2-|-2--------2--2-||
||----5-5-5-3-3-|-3-----------|---0--0-0---|---0--0-0------||

||----------------|---------------|-----------------|---------------||
||----------------|---------------|-----------------|---------------||
||----------------|---------------|-----------------|---------------||
||----------------|---------------|-----------------|---------------||
||--2-3--3-3------|---2--2-2-5--5-|-5-3--3-3--------|---2--2-2------||
||-----------3--3-|-3-------------|----------3--3-3-|-3--------2--2-||

||-------------|-------------|--------------||
||-------------|-------------|--------------||
||-------------|-------------|--------------||
||-------------|-------------|--------------||
||---3-3-3-3---|---2-2-2-2-2-|-2~-----------||
||-2---------3-|-3-----------|-0~-----------||


------------------------------------------------------------------

There you go, if you have any corrections or annotations that you would like made, feel 
to e-mail me at hxc___robb@hotmail.co.uk.

Cheers x
Tap to rate this tab
# A B C D E F G H I J K L M N O P Q R S T U V W X Y Z