Song name
# A B C D E F G H I J K L M N O P Q R S T U V W X Y Z

Arctic Monkeys - If You Found This Its Probobly Too Late tab

this song is shot easy ... good arctic monkeys song
check it out!!!

here are the tabs:

e|---/12------/17--------------/12----17-----------------------|
B|-------------------------------------------------------------|
G|-------------------------------------------------------------|    x2
D|-------------------------------------------------------------|
A|-------------------------------------------------------------|
E|-------------------------------------------------------------|

At the fourth time end on 18

then the song goes straight on to this:

e|--------------------------------------------------------------|
B|--------------------------------------------------------------|
G|-----------9--7--5----------7--5--4---------------------------|
D|----777-7--9--7--5---666-6--7--5--4---------------------------|    x2
A|----777-7--7--5--3---666-6--5--3--2---------------------------|
E|----555-5------------444-4------------------------------------|


e|---------------------------------------------------------------|
B|---------------------------------------------------------------|
G|---------------------------------------------------------------|
D|-----33--x---33----x----33-------------------------------------|
A|-----33------33---------33-------------------------------------|
E|-----55------55---------55-------------------------------------|

e|------/12 /17-----------11/ 17----/12/17-----11/18-----------|
B|-------------------------------------------------------------|
G|-------------------------------------------------------------|
D|-------------------------------------------------------------|
A|-------------------------------------------------------------|
E|-------------------------------------------------------------|


that is most of the song with repeats n shit...quite a low song n amazin 2 play

enjoy...
Tap to rate this tab
 
# A B C D E F G H I J K L M N O P Q R S T U V W X Y Z