Guitaretab - guitar tabs
Song name
# A B C D E F G H I J K L M N O P Q R S T U V W X Y Z

Arctic Monkeys - Temptation Greets You Like Your Naughty Friend tab

ARCTIC MONKEYS - TEMPTATION GREETS YOU LIKE A NAUGHTY FRIEND
A bonus track from the single, "Brianstorm".
Featuring Dizzee Rascal

This is my first tab so I would appreciate advice, and to email me at: 
if you have any questions or corrections.
Enjoy...

E--5------0-0-5------0-0-5-----(x13-|
A-----------------------------------|
D----7-10-------7-10-------7-10-----|
G-----------------------------------|
B-----------------------------------|
e-----------------------------------|

(lyrics come in at 00:21 this is when you pause)
(And then continue to play at 00:35)

REPEAT 1ST PART UNTILL 1:02, AT 1:02 PLAY THIS RIFF
[Listen to the song to get the strumming and timing right]

E--5-55--------------------| (x2)
A--7-773--337--3-5-7-5-3-2-|
D--7-775--559--5-7-9-7-5-4-|
G------5--559--5-7-9-7-5-4-|
B--------------------------|
e--------------------------|

Then go straight back into the first part

E--5------0-0-5------0-0-5-----(x18----------------------------------| [After the 4th time, pause for 1 second
A------------------------------       and then continue another x14--|
D----7-10-------7-10-------7-10--------------------------------------|
G--------------------------------------------------------------------|
B--------------------------------------------------------------------|
e--------------------------------------------------------------------|
[ Tab from: http://www.guitaretab.com/a/arctic-monkeys/91184.html ]
[Also on the 12th time, a small riff is played in the background,that goes like this]

E------------------------| (x2)
A------------------------|
D------------------------|
G--2---------------------|
B---1-3-\5--111-3\5-3/1~-|
e------------------------|

Then back into the chorus

E--5-55----------------------------------------| (x4) [On the last note, 4th time, play: ]
A--7-773--337--3-5-7-5-3-2                E----|
D--7-775--559--5-7-9-7-5-4                A--5-|
G------5--559--5-7-9-7-5-4                D--7-|
B-------------------------                G--7-|
e----------------------------------------------|

Then Dizzee Rascal will sing, play this:

E--5------- (x15) [On the 15--------------------------------|th time at the end play these notes after: ]
A---0-3-7-7           E--5----------------------------------|
D----------           A--2-3-5-5-7-77777-5-55555-3-33333-2--|
G----------           D-------------------------------------|
B----------           G-------------------------------------|
e----------           B-------------------------------------|
                      e-------------------------------------|

Then play the main riff:

E--5-55--------------------| (x4)
A--7-773--337--3-5-7-5-3-2-|
D--7-775--559--5-7-9-7-5-4-|
G------5--559--5-7-9-7-5-4-|
B--------------------------|
e--------------------------|

END...

Thanks,
Hope you enjoyed...
...Paul
Related for Temptation Greets You Like Your Naughty Friend tab
Advertisement will be closed in 10 seconds