Song name
# A B C D E F G H I J K L M N O P Q R S T U V W X Y Z

Arctic Monkeys - I Wish You Would Have Smiled In The Bakery tab

Highlighted       Show chord diagrams
I Wish You Would Have Smiled in the Bakery (Acoustic) [Re-titled: The Bakery]
Arctic Monkeys
(By ear, based on radio acoustic session)

Update after release of the single: The single version is still based around this, just 
differently.

For some stupid reason this was declined a month ago.
Here's the re-post, it's 100% correct according to how it's played live.

It seems nobody bothered to tab this song out despite it being played live a few times
I thought I'd do it.
Great song, wish I'd wrote it.
Note: Chords in the middle "I wish I would have seen you down in the arcade" bit are
higher on the fretboard.

A                     C#m           F#m
I wish you would have smiled in the bakery
                  Bm
Or sat on a tatty settee
Dm
At some mutual friend's gathering

A                        C#m
And the more you keep on looking
              F#m
The more it's hard to take
               Bm
Love, We're in stale mate

Dm                                  C#m
To never meet is surely where we're bound
                     Bm
There's one in every town
                          Dm***
Just there to grind you down

***
e|--1---5---10---13---|
B|--3---7---12---15---|
G|--2---6---11---14---|
D|--------------------|
A|--------------------|
E|--------------------|

A                   C#m             F#m
I wish I would have seen you in the post office
                     Bm
Well maybe I did and I missed it...
Dm
Too busy with the mind on clever rhymes*

A           C#m                    F#m
why not the rounder's pitch or the canteen?
                                 Bm
You're slacking Love; where have you been?
Dm
Just had to go and wait until tonight...

Lead guitar solo:
e|------------------------------------------------------------------------|
B|-10-10-17-15-14-12-10/14-12-14-17-10/12-17-15-12-15-14-12-(9)-----------|
G|------------------------------------------------------------------------|
D|------------------------------------------------------------------------|
A|------------------------------------------------------------------------|
E|------------------------------------------------------------------------|

Rhythm guitar solo:
A C#m F#m Bm Dm


C#m            Bm
So give me the invite...
                 Dm***
Don't worry it's alright...

***
e|--1---5---10---13---|
B|--3---7---12---15---|
G|--2---6---11---14---|
D|--------------------|
A|--------------------|
E|--------------------|

A        C#m                         F#m
I wish I would have seen you down in the arcade
                  Bm     Dm                               A
Sipping on a lemonaid in the paper cup and chewing on the straw
               C#m         F#m
and I wish I'd seen you in the bakery
                           Bm     Dm                                   
         But if
seen you in the bakery... (PAUSE)  you probably wouldn't have seen me
Optional outro: A F#m Dm F A

*'Rhymes' is possibly 'Lines,' Tuner's voice is unclear.

peps
Tap to rate this tab
 
# A B C D E F G H I J K L M N O P Q R S T U V W X Y Z