Song name
# A B C D E F G H I J K L M N O P Q R S T U V W X Y Z

Arctic Monkeys - What If You Were Right The First Time tab

Intro

Lead Guitar (Alex)
E------------------------------|
B------------------------------|
G------------------------------|
D----66-77-88---13-13-13--999--|
A-66---------------------------|
E------------------------------|

Rhythm Guitar Intro Chords (bar) (Jamie)

D# x4   A major x4


Verse

E-------------------------|
B-------------------------|
G-8----3------------------|
D-8----3------------------|
A-6----1------------------|
E-------------------------|

Intro is played again.

Chorus

E------------------------------|
B------------------------------| x3
G--------8---------------------|
D--8--6--8---------------------|
A--8--6--6---------------------|
E--6--4------------------------|

Chorus continues to
E-------------------------|
B-------------------------|
G-------------------------|
D-8--6--7-----------------|
A-8--6--7-----------------|
E-6--4--5-----------------|


Breakdown part
E---------------------------------------------|
B---------------------------------------------|
G---------------------------------------------|
D-7--9--13--12--9-----------------------------|
A-7--9--13--12--9-----------------------------|
E-4--7--11--10--7-----------------------------|

Then Lead Guitar (Alex) comes in with:
E---------------------------------------|
B---------------------------------------|
G--13-16--------------------------------|
D---------13-12-------------------------|
A---------------------------------------|
E---------------------------------------|

Outro is same as Intro except for last lead part,
which is:
E-------------------------------|
B-------------------------------|
G-11-13-14-15/-20---------------|
D-----------------21-20---------|
A-------------------------------|
E-------------------------------|
Tap to rate this tab
# A B C D E F G H I J K L M N O P Q R S T U V W X Y Z