Song name
# A B C D E F G H I J K L M N O P Q R S T U V W X Y Z

Arctic Monkeys - The Nettles tab

This is actually the intro to The Wagon On The Way To The Stripey Tent! Sorry!

(Guitar 1)

E |----------------------------------------|
B |----------------------------------------|
G |----------------------------------------|
D |----------------------------------------|
A |--2--3--5--3--2--3--5--2--3--7--5--3----|
E |----------------------------------------| (keep repeating)

E |--------------------|
B |--------------------|
G |--------------------|
D |--------------------|
A |--2--3--5--7--5--2--|
E |--------------------| (slight variation)

(Guitar 2)

E |----------------------------------------|
B |--10b-3b-5b-----------------------------|
G |-------------4b-------------------------|
D |----------------------------------------|
A |----------------------------------------|
E |----------------------------------------|

E |--------------------|
B |--------------------|
G |--------------------|
D |--4-----------------|
A |--2-----------------|
E |--------------------| (repeat through main riff of song)

E |-------------------------------------------------------------|
B |--10b-3b-5b------------10b-3b-5b----------12bx8--15bx8--17bx8|
G |-------------4b-2b-4b------------4b-2b-4b--------------------|
D |-------------------------------------------------------------|
A |-------------------------------------------------------------|
E |-------------------------------------------------------------|
Tap to rate this tab
# A B C D E F G H I J K L M N O P Q R S T U V W X Y Z