Guitaretab - guitar tabs
Song name
# A B C D E F G H I J K L M N O P Q R S T U V W X Y Z

Arctic Monkeys - The Bad Thing tab

the bad thing
ARCTIC MONKEYS
                     ----------|U|íses G. S.|-----------

e|--7--7--5--3--2--|
B|--8--7--5--3--2--|
G|--9--8--6--4--3--|
D|--9--9--7--5--4--|
A|-----9--7--5--4--|
E|-----------------|
 |
e|--------------------------------------------------------------|
B|-5-3-0------3-5-3---------5--5-3---3--5-3---------3-5-3-------|
G|--------2-4-------4--0-----------4--------4-3-2-4-------4-0---|
D|------------------------4------------------------------------4|
A|--------------------------------------------------------------|
E|--------------------------------------------------------------|

e|--5-----5---------|
B|--6-----5---------|
G|--7-----5---------|
D|--7-----7---------|
A|-----3--7--0-2-3-0|
E|--------5---------|.....

e|--5--5--5--5--|
B|--6--5--6--5--|
G|--7--5--7--5--|
D|--7--7--7--7--|
A|-----7-----7--|
E|-----5-----5--|
[ Tab from: http://www.guitaretab.com/a/arctic-monkeys/97285.html ]
 solo
e|-------------------------------------------------------------------------|
B|-------------------------------------------------------------------------|
G|-999-7-----999-7--------------------9------------------------------------|
D|-------10---------10-7-----7-10-7-----10---------------------------------|
A|------------------------10-----------------------------------------------|
E|-------------------------------------------------------------------------|

Play 2 times

e|-------------------------------------------------------------------------|
B|----------------------------------------------------------12-------------|
G|--1414-------1212-------1414------------------12-14-12-14----14-12-14-11-|
D|-------14-14------14-14------14-14--10/12/14-----------------------------|
A|-------------------------------------------------------------------------|
E|-------------------------------------------------------------------------|
Thanks that's all

dedicada para una chava que le late mucho este grupo y es la unica que se que lo conoce 
por ti SANDRA jaja
Related for The Bad Thing tab