Song name
# A B C D E F G H I J K L M N O P Q R S T U V W X Y Z

Arcturus - Deamon Painter tab

            Arcturus - Deamon Painter Intro
Tabbed By:Chasef
  Clean Intro
E|0-----------0-----------|
B|--0-----------0---------|
G|----0-----------0-------|
D|------0-5~~-------0--8~~|
A|--------6~~----------7~~|
E|------------------------|
B|------------------------|

Riff 1(Distortion Guitar)
|--6-7~---6-7~-|
|5------5---8~-|
|--------------|
|--------------|
|--------------|
|--------------|
|--------------|

This is what i have so far ...im hoping somone will take what is of this tab and make it 
full tab
im not sure if it is correct but enjoy :)
Tap to rate this tab
 
# A B C D E F G H I J K L M N O P Q R S T U V W X Y Z