Song name
# A B C D E F G H I J K L M N O P Q R S T U V W X Y Z

Area 11 - Dota 2 Beta Key tab

(Play with distortion)

Tuning: Standard (EADGBe)

Chords: 
(They play throughout,though no always on the guitar)

|----------------------|
|----------------------|
|--6--------------4----|
|--6----7----2----4----|
|--4----7----2----2----|
|-------5----0---------|

Solo:

|----------------9-------------------------9--------------|
|--9--12--9--12-----9----9-9--9--12--9--12-----10----10-10|
|---------------------------------------------------------|
|---------------------------------------------------------|
|---------------------------------------------------------|
|---------------------------------------------------------|

|---------------------------------------------------------|
|--9--12--9--12--12-----12-12--9--12--9--12--12-----------|
|--------------------9------------------------------------|
|---------------------------------------------------------|
|---------------------------------------------------------|
|---------------------------------------------------------|

That's pretty much the whole song!
Tabbed by Franco (Fvfvxcvxcv)
Tap to rate this tab
 
# A B C D E F G H I J K L M N O P Q R S T U V W X Y Z