Song name
# A B C D E F G H I J K L M N O P Q R S T U V W X Y Z

Area 11 - Tokyo House Party chords

Highlighted       Show chord diagrams
Tokyo House Party - Area 11

-------
Tabbed by Jack Wilburn
Email: Jackwilburn@hotmail.co.uk
        Email me with any concerns you may have!

Chords: 

   F   A#  G#  G   D#  C  low F 

e|-----------------------------|
B|-----------------------------|
G|-10--3-----------8---5-------|
D|-10--3---6---5---8---5---3---|
A|-8---1---6---5---6---3---3---|
E|---------4---3-----------1---|


Fill:
e|--------------------|
B|--------------------|
G|--------------------|
D|--------------------|
A|--------3-----------|
E|--3--5-----5--3--5--|

Bass intro

Verse: F, A#, G#, G

Fill into:
Chorus: (D#, F, C, G#) x2

Post chorus: (D#, D#, C, G, G#) x2
        G#, D#, A#, C, A#
        G#, D#, A#
        G#, D#, A#, C, A#
        G#, D#, A#, G#. G 

Verse: F, A#, G#, G

Fill into:
Chorus: (D#, F, C, G#) x2

Post chorus: (D#, D#, C, G, G#) x2
        G#, D#, A#, C, A#
        G#, D#, A#
        G#, D#, A#, C, A#
        G#, D#, A#, G#. G 

Bridge: (D#, C, G, G#) x3
        D#, lowF, G#, G, C 

Breakdown: (C, D#, A#, G#) Play until the end
Tap to rate this tab
# A B C D E F G H I J K L M N O P Q R S T U V W X Y Z