Song name
# A B C D E F G H I J K L M N O P Q R S T U V W X Y Z

Area 7 - Boys Dont Cry tab

Standard Tuning


Intro
E|---------------------------------|
B|---------------------------------|
G|---------------------------------|
D|---------------------------------| x 3
A|---7-9---7-11---7-9---7-11-9-7---|
E|---------------------------------|


Chorus
E|-------------|
B|---3-5-7-9---|
G|-------------|
D|-------------| x 2
A|-------------|
E|-------------|


Verse
E|-----------------------------------------------|
B|-----------------------------------------------|
G|-----------------------------------------------|
D|-----------------------------------------------| x 7
A|---7-7-7-7---9-9-9-9---7-7-7-7---11-11-11-11---|
E|-----------------------------------------------|


Chorus
Verse
Chorus
Verse
Chorus


Outro
E|-----------------------------|
B|---3---5---7---9---9-7-5-3---|
G|-----------------------------|
D|-----------------------------|
A|-----------------------------|
E|-----------------------------|


E|-------------------------------|
B|-------------------------------|
G|-------------------------------|
D|-------------------------------| Repeat to End
A|---5-5---7-7-7---9-9---11-11---|
E|-------------------------------|

Tap to rate this tab
 
# A B C D E F G H I J K L M N O P Q R S T U V W X Y Z