Song name
# A B C D E F G H I J K L M N O P Q R S T U V W X Y Z

Area 7 - Tale Of The Bear Boy tab

Help us improve GuitareTab! Take a short survey!
Tuning: Drop D

Intro & Verse:
E|--------------------------------|
B|--------------------------------|
G|--14-14-------------------10-9-*|
D|--14-14--10-10--12-12--12-10-9-*|
A|--12-12--10-10--12-12--12--8-9--|
D|---------10-10--12-12--12-------|
A A C C D D D F E
Chorus:
E|--------------------|
B|--------------------|
G|-------------------*|
D|--7--10--12--10--9-*|
A|--7--10--12--10--9--|
D|--7--10--12--10--9--|
A C D C B
Build Up:
E|---------------------------------|
B|---------------------------------|
G|--7-7--7-9-9--9-10-10--10-12-12-*|
D|--7-7--7-9-9--9-10-10--10-12-12-*|
A|--5-5--5-7-7--7--8--8---8-12-12--|
D|---------------------------------|
D D D E E E F F F
Solo (uses thes chords):
E|---------------|
B|---------------|
G|--14---10---9-*|
D|--14---10---9-*|
A|--12----8---9--|
D|---------------|
Related for Tale Of The Bear Boy tab