Song name
# A B C D E F G H I J K L M N O P Q R S T U V W X Y Z

Arena - Rapture tab

Rapture, by Arena
off the Seventh Degree of Separation album, 2011

http://www.arenaband.com


Transcribed by Beanboy


(Intro/verse/chorus)
e|-----------------------------------------------------------------------------------------------|
B|-----------------------------------------------------------------------------------------------|
G|---------5-3-5----------5-3-5----------7-5-7----------8-6-8------------------8-8-8----8-8-8-8--|
D|-2--2-2--5-3-5--2--2-2--5-3-5--2--2-2--7-5-7--2--2-2--8-6-8--(repeat)-----2--8-8-8--2-8-8-8-8--|
A|-2--2-2--3-3-3--2--2-2--3-3-3--2--2-2--5-5-5--2--2-2--6-6-6---------------2--6-6-6--2-6-6-6-6--|
E|-0--0-0---------0--0-0---------0--0-0---------0--0-0----------------------0---------0----------|

(first break)
e|------------------------------|
B|------------------------------|
G|-----------------3-2-0--------|
D|-------------0-2-------3-1-1-1|
A|-------0-2-3------------------|
E|-0-2-3------------------------|


(middle 8)
e|------------------------------------------------------|
B|------------------------------------------------------|
G|--5-7-2----5-7-2-------------5-7-2-4--5-7-2-4--5-7----|
D|--5-7-2-2--5-7-2-2-----------5-7-2-4--5-7-2-4--5-7-2--|
A|--3-5-0-2--3-5-0-2-----------3-5-0-2--3-5-0-2--3-5-2--|
E|--------0--------0---------------------------------0--|
	    So now I'm ready...I must take this....
Tap to rate this tab
# A B C D E F G H I J K L M N O P Q R S T U V W X Y Z