Song name
# A B C D E F G H I J K L M N O P Q R S T U V W X Y Z

Arena - Fridays Dream tab

                                       Artist - Arena
                                      ****************
                                    Song - Friday's Dream
                                   ***********************
                                      Album - Immortal
                                     ******************  



Intro
*****
A2  Fadd9
A2  Fadd9

00:15
Am                       Fadd9
What I dream tonight may rest with me
      C                  G
 Till morning comes again
Am       
 From the truth comes light
        Fadd9             C                    G
 We're vulnerable, as we shelter from the rain

00:43
Fadd9            C       F
 This is the place where all I touch
              C     Bb
 May not be as it seems


00:57
Am                     Fadd9 
When I close my eyes I pray that you
    C                    G
May shield me from this pain
Am
 Hidden from my sight
    Fadd9             C                    G
 So dangerous, as we shelter from the rain
  
01:25 - {small solo comes in}
Fadd9           C       F
This is the place where all I touch
              C     Bb
 May not be as it seems
                     F            Csus        C
 And still we go on waiting for Friday's Dream


01:48
F                        Dm 
 It's a world that's far away
                           C
  From the sound of people calling
   Bb
  "Free me from these chains"
F                  Dm
  It's a moment of escape
                         C      Bb        F
  As the blood of fallen angels scars the earth
  Bb             F             C
  Tearing at the innocent once more
 

Organ Chords
************
02:23
Am                        Bb
 What I dream tonight may rest with me
      F                  C
 Till morning comes again
Am
 Wakened by our doubt
    Bb                   F                  C
 We cling to this as we shelter from the rain

02:52 
F                        Dm 
 It's a world that's far away
                           C
  From the sound of people calling
   Bb
  "Free me from these chains"
F                  Dm
  It's a moment of escape
                         C      Bb        F
  As the blood of fallen angels scars the earth
  Bb             F             C
  Tearing at the innocent once more


 
Solo
***** 
03:24
F                        Dm 
 It's a world that's far away
                           C
  From the sound of people calling
   Bb
  "Free me from these chains"
F                  Dm
  It's a moment of escape
                         C      Bb        F
  As the blood of fallen angels scars the earth
  Bb        F
  Burns the earth
  Bb             F             C
  Tearing at the innocent once more

Organ Chords
*************
Am                      Fadd9
When I close my eyes I pray we'll find
   C                    G
 A shelter from the rain
Am                        Fadd9
 What I dream tonight may rest with with me
      C
 Till morning comes
      G
 Till morning comes

 And I...wake up


Do These little solos
**********************
01:25       01:44       
   rb     volume pedal/guitar control
[--13--]    [------]
[------]    [--13--]
[------]    [------]
[------]    [------]
[------]    [------]
[------]    [------]

Main Solo
**********
03:24                                                  b  b   b
[--12-13-12-10---12-13-12-10---12-13-12-10---12-13-15-15-15--15-15--13-----]
[--------------------------------------------------------------------------]
[--------------------------------------------------------------------------]
[--------------------------------------------------------------------------]
[--------------------------------------------------------------------------]
[--------------------------------------------------------------------------]

    b                                          b   b           b
[--15-15--12--15-13-12-13-10---|--10-12-13-15-15--15-15--13---15-15--12----]
[------------------------------|-------------------------------------------]
[------------------------------|-------------------------------------------]
[------------------------------|-------------------------------------------]
[------------------------------|-------------------------------------------]
[------------------------------|-------------------------------------------]


[--15-15-13-12-13--10-12-13-20---10-12-13-20---10-12-13-17--15-15----------]
[--------------------------------------------------------------------------]
[--------------------------------------------------------------------------]
[--------------------------------------------------------------------------]
[--------------------------------------------------------------------------]
[--------------------------------------------------------------------------]
Tap to rate this tab
# A B C D E F G H I J K L M N O P Q R S T U V W X Y Z