Song name
# A B C D E F G H I J K L M N O P Q R S T U V W X Y Z

Arena - Bitter Harvest chords

Highlighted       Show chord diagrams
                                          Artist - Arena
                                         ****************
                                      Song - Bitter Harvest 
                                     ***********************
                                        Album - Contagion  
                                       *******************
                                       Tabbed By - Ayreon77
                                      **********************





VERSE 1 - PIANO & ORGAN CHORDS
********
Am               B
  We've sown the seeds now
      Am                  B
Don't know where they may fall
Am            B       
  Just lonely ghost towns
      Am              B
Empty churches, empty town halls
Am              B
We've traveled far now
    Am          B             C#m
And so into the wilderness we crawl

------------------------------------------------------------------
00:23
SECTION 1
**********
I Guess he does the heavy chords, as well as the notes, it sure fills it in

 C#m Ab  Eb  Ab  A  A  Ab F# Ab
[------------------------------]
[------------------------------]
[------------------------------]
[------------------------------]
[-4-------6--------------------]
[-----4-------4--5--5--4--2--4-]X2

-------------------------------------------
00:39
VERSE 2
******** 
    Am                   B
I'm floating through the debris
   Am                  B
Of reference books and catalogs
Am            B
Climbing over sun baked bones
   Am                   B
Of Kings and Queens and Demigods

-------------------------------------------
00:54
CHORUS
********
 Play This With The Chorus Below...
 E
[------------------7-|-7--------7----------------]
[-------10-----------|--------------p----p----p--]
[-----9----------9---|--------8----9-8--9-8--9-8-]
[---9----------9-----|------9--------------------]
[-7----------7-------|---------------------------]
[--------------------|----7----------------------]X2

E
You can take away my crown
                                 B
But you'll never bring my spirit down

I won't give in 
E
Try to push me off the rope
                                  B
I will float down on the wings of hope 

I won't give in 

-------------------------------------------
01:25
VERSE 3
********
  Am                 B
I wander through the dead lands
   Am              B
Computer chips and stereos
Am            B
Powerless technology
   Am                 B
Instruction books and videos

-------------------------------------------
01:41
CHORUS
********
-------------------------------------------
                    on the last one do this
                  G[----------6-]  
02:12             D[----------6-] 
PLAY SECTION 1 X4 A[----------4-]    
***************   E[-5-4-2--0-0-]

C#m  Ab       Eb  Ab           A          A     Ab  F#  Ab        
     Time may fly - And I will search the world for you
C#m  Ab      Eb    Ab           A         A     Ab   F#  Ab
     Rainbow skies - And I will cross the seven seas for you
C#m  Ab      Eb  Ab          A       A   Ab F#  Ab
     Race on by - And I will find my way to you
C#m  Ab      Eb    Ab           A         A    Ab  F#  Ab 
     Rainbow skies - And I will cross the universe for you


ENJOY.........
Tap to rate this tab
# A B C D E F G H I J K L M N O P Q R S T U V W X Y Z