Song name
# A B C D E F G H I J K L M N O P Q R S T U V W X Y Z

Arghoslent - Quelling The Simian Surge tab

Band:  Arghoslent
Album: Incorrigble Bigotry
Song:  Quelling the Simian Surge

www.arghoslent.cjb.net

Copyright (c) Drakkar Productions 2002

.  - palm mute           b  - Bend
/  - slide up to         r  - release bend
\  - slide down to       b~ - vibrato bend
~  - vibrato             =  - let ring
h  - hammer on           () - ghost note
p  - pull off            <> - pinch harmonic


Tuning: DGCFAD

Pickup
|-----|
|-----|
|-----|
|-7-8-|
|-5-6-|
|-5-6-|

 Riff 1
                        3x
|-------------------------|--------------------|
|-------------------------|--------------------|
|-------------------------|--------------------|
|-9------7-9--------------|-99999----7---------|
|-7------5-7----10p7------|-------10---10-7----|
|-7-0000-5-7-00------10p7-|-----------------10-|
pm  ....     ..

 Riff 1 (cont'd)
                        3x
|-------------------------|------------------|
|-------------------------|------------------|
|-------------------------|-------7-9--------|
|-9------7-9--------------|-99999-----7-9----|
|-7------5-7----10p7------|---------------10-|
|-7-0000-5-7-00------10p7-|------------------|
pm  ....     ..

Fill 1:
|--------------------------------|
|--------------------------------|
|--------------------------7-9---|
|-99999----7---------99999-----7-|
|-------10---10-7----------------|
|-----------------10-------------|

 Chorus
 Riff 2
|----------------------------------------|
|----------------------------------------|
|----------------------------------------|
|-9-------------7--------5-----5---5---5-|
|---10-10101010---9-9999---7-777-777-777-|
|----------------------------------------|
pm     . . . .      ....     ..  ..  ..

 Riff 2 (cont'd)
|---------------------------------------------------------|
|---------------------------------------------------------|
|---------------------------------------------------------|
|-9-------------12-------------10--------10-----10-----10-|
|---10-10101010----14-14141414----12-121212-121212-121212-|
|---------------------------------------------------------|
pm     . . . .        . . . .        . .    . .    . .

 Riff 2 (cont'd)
|----------------------------------------|
|----------------------------------------|
|----------------------------------------|
|-9-------------7--------5-----5---5---5-|
|---10-10101010---9-9999---7-777-777-777-|
|----------------------------------------|
pm     . . . .      ....     ..  ..  ..

 Riff 3
|--------------------------------|
|--------------------------------|
|--------------------------------|
|-7-5-4-----------5-4-5----------|
|-9-7-5--5-5-5555-7-5-7-7-7-7777-|
|--------------------------------|
pm       . . ....       . . ....
 
 Riff 4
|---------------------------------|
|---------------------------------|
|---------------------------------|
|-12\9----9-------12\9--7--7755---|
|-10\7--7-7--7777-10\7--5------77-|
|---------------------------------|
pm           ....

 Riff 5
|-----------------------------------------------------------|
|-----------------------------------------------------------|
|--------------------------------------------------4--------|
|-7-5-4-----------5-4-0----------7-5-4-----------5---5-7----|
|-9-7-5--5-5-5555-7-5-2-2-2-2222-9-7-5--5-5-5555---------7~-|
|-----------------------------------------------------------|
pm       . . ....       . . ....        . . ....

 Riff 6
|---------------------------------|
|---------------------------------|
|---------------------------------|
|---------------------------------|
|-12\9----9-------12\9--7--7755---|
|-10\7--7-7--7777-10\7--5------77-|
pm           ....

 Riff 7
|---------------------------------|
|---------------------------------|
|---------------------------------|
|-12\9----------------------------|
|-10\7--9--9------10\9--9--9------|
|-------7--7-7777-12\10-7--7-7777-|
pm           ....            ....

 Riff 5a
|---------------------------------------------------------------|
|---------------------------------------------------------------|
|--------------------------------------------------4------------|
|-7-5-4-----------5-4-0----------7-5-4-----------5---5-7br------|
|-9-7-5--5-5-5555-7-5-2-2-2-2222-9-7-5--5-5-5555-----------<7>~-|
|---------------------------------------------------------------|
pm       . . ....       . . ....        . . ....
 
 Riff 8
|------------------------|
|-8----------------------|
|-9--9--9----------------|
|-9--9--9----------------|
|-7--7--7----------------|
|-------7--5~-8~---10~---|

 Riff 9
|----------------------------------------------------|
|----------------------------------------------------|
|----------------------------------------------------|
|----------------------------------------------------|
|-10-9-7----7----7~---9~--10-9-7----7----7~---14--12-|
|--------10----------------------10------------------|
|
|Riff 9a
|----------------------------------------------------|
|-8-----------------------8--------------------------|
|-9----9------------------9----9---------------------|
|-9----9----9-------------9----9----9----------------|
|-7----7----9-------------7----7----9----------------|
|-----------7-5~-8~---10~-----------7-5~-8~---10~----|

 Fill 3
|-------------|
|-------------|
|-------------|
|-------------|
|-11~~--9~~---|
|-------------|
|
|Fill 3a
|-------------|
|-------------|
|-------------|
|-------------|
|-------------|
|-9~~~--------|

 Riff 10 (Under Solo)
        4x        4x        4x        4x
|---------|---------|---------|---------|
|---------|---------|-------5-|-------7-|
|-------4-|-------0-|-----7---|-----9---|
|-----4---|-----4---|---5-----|---8-----|
|---5-----|---5-----|-7-------|-9-------|
|-7-------|-7-------|---------|---------|
pm. . .     . . .     . .       . .

 Guitar Solo 1
|------------------------------------------------------------------------------|
|------------------------------------------------------------------------------|
|----------------------------------------------------------------7---9b-9b-9b~-|
|----------12----------11----------7-------7--------------7-7--9---9-----------|
|--------9-----------9-----------9---7-8-9---9-8-9--7h8h9----------------------|
|-10-9-7------10-9-7------10-9-7-----------------------------------------------|

|-18-15h18p15-14--------------------------------------------------------------------|
|----------------15-14~-15-12h15p12-11----------------------------------------------|
|--------------------------------------12-11~-9-7h9p7---7-6-7---7-9p7-7h9p7-6-------|
|-----------------------------------------------------9-------9---------------7-9~--|
|-----------------------------------------------------------------------------------|
|-----------------------------------------------------------------------------------|

|-----------12-----------------14-------19-17h19p17-----------14-12h14p12------------------19\-|
|--------14----14-----------15----15----------------19--------------------14-11----11-14\------|
|-/15-15----------15--16-16----------16----------------19-16~-------------------11-------------|
|----------------------------------------------------------------------------------------------|
|----------------------------------------------------------------------------------------------|
|----------------------------------------------------------------------------------------------|

 Riff 11
|---------------------------------------------------------|
|---------------------------------------------------------|
|-------------------7-6-----------------------------------|
|-----7---7h9p7---7-----9--9-7----------------------------|
|-5-9---9-------9--------------9--10-9-7-------9-7-5------|
|----------------------------------------10-7~-------7-5~-|

 Guitar Solo 2
-7----7-9--7h9p7---------9-------------------------------------------------------------------------|
|--10------------10-8-7~---7\5~--------------------------------------------------------------------|
|-------------------------------6-7-6-/9--7-6------------3---4-3-6-4-7-6-9-7h9p7-6-----------------|
|---------------------------------------------9-8--5--4----5-----------------------9-8-5-4~--------|
|-------------------------------------------------------------------------------------------2-0----|
|-----------------------------------------------------------------------------------------------3-2|

|--------------------------------------------------------------------------|
|--------------------------------------------------------------------------|
|-15-12h15p12-11-12-11-----------------------------------------------------|
|----------------------12/15-12h15p12-11-12-11-------------------11--------|
|----------------------------------------------12/15-12h15p12h15-----10-9~-|
|--------------------------------------------------------------------------|

|----------------------------------------------------------------------------------------|
|----------------------------------------------------------------------10-12-13-12----12-|
|----------11-12-11-10-------------------------------9-11-9----9-11-12-------------14----|
|---11--12-------------12~--------7-9-7----7-9-11-12--------12---------------------------|
|-9------------------------7-9-10-------10-----------------------------------------------|
|----------------------------------------------------------------------------------------|

|-------12-14-15-14-15-17-19\--|
|-13-15-------------------19\--|
|------------------------------|
|------------------------------|
|------------------------------|
|------------------------------|

 Riff 11a
|----------------------------------------------------------------------|
|----------------------------------------------------------------------|
|-------------------7-6------------------------------------------------|
|-----7---7h9p7---7-----9--9-7-----------------------------------------|
|-5-9---9-------9--------------9--10-9-7-------9-7-5-------2h5-2-0---2-|
|----------------------------------------10-7~-------7-4b~---------2---|

Structure:
Pickup
Riff 1 x2
Fill 1
Riff 2 x1
Riff 3 x1
Riff 4 x1
Riff 1 x2
Fill 1
Riff 2 x1
Riff 5 x1
Riff 4 x2
Riff 6 x1
Riff 4 x2
Riff 6 x2
Riff 4 x3
Riff 7 x1
Riff 1 x2
Fill 1
Riff 2 x1
Riff 5a x1
Riff 8 x2
Riff 9 & 9a x2
Fill 3 x1
Guitar Solo 1 w/Riff 10 x2
Riff 11 x2
Guitar Solo 2 w/Riff 10 x2
Riff 11 x1
Riff 11a x1
Tap to rate this tab
# A B C D E F G H I J K L M N O P Q R S T U V W X Y Z