Guitaretab - guitar tabs
Song name
# A B C D E F G H I J K L M N O P Q R S T U V W X Y Z

Arhangel - Chudesen Svet tab

Zdravo na site.So da vi kazam uba pesna to e.Nekoi delovi ne gi znam  za solo gitara ama 
se potrudam da gi napisam do negde.Prvata gitara go drzi ritamot(akordite) a drugata soloto.

I gitara


       A-moll                   C-dur
e|-------0------------------------0-------------------------------|
B|-------1------------------------1-------------------------------|
G|-------2------------------------0-------------------------------|
D|-------2------------------------2-------------------------------|2 pati
A|-------0------------------------3-------------------------------|
E|----------------------------------------------------------------|
 I stih   I need a friend oooo I need a friend to make me happy
 II stih  Not standing on my own


 I gitara


        A-moll     E-moll   A-moll      D-moll
e|--------0----------0--------0-----------1----------------|
B|--------1----------0--------1-----------3----------------|
G|--------2----------0--------2-----------2----------------|
D|--------2----------2--------2-----------0----------------|2 pati
A|--------0----------2--------0----------------------------|
E|-------------------0-------------------------------------|
           Look at me standing here on my own again
           Up streight in the sun shine


  I gitara

 Refren

          A-moll    C-dur          A-moll     D-moll
e|-----------0--------0---------------0---------1----------------|
B|-----------1--------1---------------1---------3----------------|
G|-----------2--------0---------------2---------2----------------|
D|-----------2--------2---------------2---------0----------------|
A|-----------0--------3---------------0--------------------------|
E|---------------------------------------------------------------|
  No need to run and hide cause its a wonderful wonderful world


II gitara

[ Tab from: http://www.guitaretab.com/a/arhangel/109708.html ]
e|------------------------------------------------------------|
B|------------------------------------------------------------|
G|------------------------------------------------------------|
D|-3---2----------------------------0---2--0-----3--2---------|
A|--------3--0---3---------------3------------3--------3------|
E|--------------------3----3-------------------------------3--|


   I gitara

    A-moll         C-dur
e|----0-------------0----------|
B|----1-------------1----------|
G|----2-------------0----------|
D|----2-------------2----------|2 pati
A|----0-------------3----------|
E|-----------------------------|


  II gitara

e|----5-------------8----------|
B|----5-------------8----------|
G|----5-------------9----------|
D|-----------------------------|2 pati
A|-----------------------------|
E|-----------------------------|

 Sega se povtoruvaat istite akordi kako na pocetokot samo drug e tekstot


   Izlezi, ke vidis povtorno          II gitara
   Se e magicno i nepravedno.
   Gledas li devojka na neboto
   Soncevi prameni, povtorno sum sam  D|---7--------9------------------|
                                      A|---7--------9------------------|
                                      E|---5--------8------------------|
   Vo oci solzi                        ova se sviri za vreme na prvata strofa
   Plamen vo srceto
   Plamen vo srceto

   Refren
   Ova e, ova e, ova e cudesen, cudesen svet!

Solo
e|--------------------8--7----------9-----|
B|--------------------------10------9-----|
G|----------------------------------------|2 pati
D|----------------------------------------|
A|--------3---5--7------------------------|
E|-----5----------------------------------|


   Izlezi, ke vidis povtorno
   Se e magicno i nepravedno.
   Gledas li devojka na neboto
   Soncevi prameni, povtorno sum sam

   Vo oci solzi
   Plamen vo srceto
   Plamen vo srceto

   Refren
   Ova e, ova e, ova e cudesen, cudesen svet!


e|------------------------------------------------|
B|------------------------------------------------|
G|------------------------------------------------|
D|-------2----------------------------------------|
A|----3-----2----0---2----3--2--0--5--3---2-------|
E|--------------------------------------------3---|


  To e to finito!!!!!!!!!!!
Related for Chudesen Svet tab
×
Chudesen Svet