Song name
# A B C D E F G H I J K L M N O P Q R S T U V W X Y Z

Arhangel - Heart Core tab

-----------------------------------------------------------------------------
                             HEART CORE - Arhangel
-----------------------------------------------------------------------------
Tabbed by:Petkovski
E-mail:martinpetkovski@email.com

Tuning: E A D G B E

   Am
e|-0---------1---------3--------------|
B|----1---------1---------1-----------|
G|-------2---------2---------2--------|
D|------------------------------2-----|
A|---------------------------------0--|
E|------------------------------------|


   Am
e|-0---------1---------3--------------|
B|----1---------1---------1-----------|
G|-------2---------2---------2--------|
D|------------------------------2-----|
A|---------------------------------0--|
E|------------------------------------|


   Am
e|-0---------1---------3--------------|
B|----1---------1---------1-----------|
G|-------2---------2---------2--------|
D|------------------------------2-----|
A|---------------------------------0--|
E|------------------------------------|


   Am
e|-0---------1---------3--------------|
B|----1---------1---------1-----------|
G|-------2---------2---------2--------|
D|------------------------------2-----|
A|---------------------------------0--|
E|------------------------------------|

   Am               F           D
e|--------------------------------------------|
B|--1-----0h1-------------1-----------3p1-----|
G|-----2--------2------2-----------2----------|
D|------------------3-----------0-------------|
A|-----------------------------------------0--|
E|--------------------------------------------|


   Am               D          Em
e|--------------------------------------------|
B|--1-----0h1-------------3----------1--0-----|
G|-----2--------2------2----------------------|
D|------------------0-------------2-----------|
A|--------------------------------------------|
E|-----------------------------0--------------|

   F                   D                        C            G
e|---------------------------------0-----------------------------3--------|
B|----1-----0h1--------------3--------3-----2---------1----------3--------|
G|-------2-------2--------2-----2--------2---------0-----0-------0--------|
D|--3------------------0-----------------------------------------0--------|
A|----------------------------------------------3-------------------------|
E|-----------------------------------------------------------3------------|


e|-------------------|
B|-------------------|
G|--2/5--7--5--4-----|
D|-------------------|
A|----------------0--|
E|-------------------|

   Am               F           D
e|--------------------------------------------|
B|--1-----0h1-------------1-----------3p1-----|
G|-----2--------2------2-----------2----------|
D|------------------3-----------0-------------|
A|-----------------------------------------0--|
E|--------------------------------------------|


   Am               D          Em
e|--------------------------------------------|
B|--1-----0h1-------------3----------1--0-----|
G|-----2--------2------2----------------------|
D|------------------0-------------2-----------|
A|--------------------------------------------|
E|-----------------------------0--------------|

   F                   D                        C            
e|---------------------------------0-----------------------------|
B|----1-----0h1--------------3--------3-----2---------1----------|
G|-------2-------2--------2-----2--------2---------0-----0-------|
D|--3------------------0-----------------------------------2-----|
A|----------------------------------------------3------------0---|
E|---------------------------------------------------------------|


   Am
e|-0---------1---------3--------------|
B|----1---------1---------1-----------|
G|-------2---------2---------2--------|
D|------------------------------2-----|
A|---------------------------------0--|
E|------------------------------------|


   Am
e|-0---------1---------3--------------|
B|----1---------1---------1-----------|
G|-------2---------2---------2--------|
D|------------------------------2-----|
A|---------------------------------0--|
E|------------------------------------|


   Bb                          Е       Bb                       Е Е Е
e|-1---------------1-------------------1-------------1----------------------|
B|-3------------3-----3----------------3----------3-----3-------5-5-5-------|
G|-3---------------------3--2--1-------3-------------------3----7-7-7-------|
D|-3-----------------------------------3-------3----------------6-6-6-------|
A|-1-----------------------------------1----1-------------------7-7-7----0--|
E|--------------------------------------------------------------------------|

   Am
e|-0---------1---------3--------------|
B|----1---------1---------1-----------|
G|-------2---------2---------2--------|
D|------------------------------2-----|
A|---------------------------------0--|
E|------------------------------------|

   Am
e|-0---------1---------3--------------|
B|----1---------1---------1-----------|
G|-------2---------2---------2--------|
D|------------------------------2-----|
A|---------------------------------0--|
E|------------------------------------|

   Am
e|-0---------1---------3--------------|
B|----1---------1---------1-----------|
G|-------2---------2---------2--------|
D|------------------------------2-----|
A|---------------------------------0--|
E|------------------------------------|

   Am
e|-0---------1---------3--------------|
B|----1---------1---------1-----------|
G|-------2---------2---------2--------|
D|------------------------------2-----|
A|---------------------------------0--|
E|------------------------------------|

   Am               F           D
e|--------------------------------------------|
B|--1-----0h1-------------1-----------3p1-----|
G|-----2--------2------2-----------2----------|
D|------------------3-----------0-------------|
A|-----------------------------------------0--|
E|--------------------------------------------|


   Am               D          Em
e|--------------------------------------------|
B|--1-----0h1-------------3----------1--0-----|
G|-----2--------2------2----------------------|
D|------------------0-------------2-----------|
A|--------------------------------------------|
E|-----------------------------0--------------|

   F                   D                        C            G
e|---------------------------------0-----------------------------3--------|
B|----1-----0h1--------------3--------3-----2---------1----------3--------|
G|-------2-------2--------2-----2--------2---------0-----0-------0--------|
D|--3------------------0-----------------------------------------0--------|
A|----------------------------------------------3-------------------------|
E|-----------------------------------------------------------3------------|


e|-------------------|
B|-------------------|
G|--2/5--7--5--4-----|
D|-------------------|
A|----------------0--|
E|-------------------|

   Am               F           D
e|--------------------------------------------|
B|--1-----0h1-------------1-----------3p1-----|
G|-----2--------2------2-----------2----------|
D|------------------3-----------0-------------|
A|-----------------------------------------0--|
E|--------------------------------------------|


   Am               D          Em
e|--------------------------------------------|
B|--1-----0h1-------------3----------1--0-----|
G|-----2--------2------2----------------------|
D|------------------0-------------2-----------|
A|--------------------------------------------|
E|-----------------------------0--------------|

   F                   D                        C            
e|---------------------------------0-----------------------------|
B|----1-----0h1--------------3--------3-----2---------1----------|
G|-------2-------2--------2-----2--------2---------0-----0-------|
D|--3------------------0-----------------------------------2-----|
A|----------------------------------------------3------------0---|
E|---------------------------------------------------------------|


   Am
e|-0---------1---------3--------------|
B|----1---------1---------1-----------|
G|-------2---------2---------2--------|
D|------------------------------2-----|
A|---------------------------------0--|
E|------------------------------------|


   Am
e|-0---------1---------3--------------|
B|----1---------1---------1-----------|
G|-------2---------2---------2--------|
D|------------------------------2-----|
A|---------------------------------0--|
E|------------------------------------|


   Bb                          Е       Bb                       Е Е Е
e|-1---------------1-------------------1-------------1----------------------|
B|-3------------3-----3----------------3----------3-----3-------5-5-5-------|
G|-3---------------------3--2--1-------3-------------------3----7-7-7-------|
D|-3-----------------------------------3-------3----------------6-6-6-------|
A|-1-----------------------------------1----1-------------------7-7-7----0--|
E|--------------------------------------------------------------------------|

   Am
e|-0---------1---------3--------------|
B|----1---------1---------1-----------|
G|-------2---------2---------2--------|
D|------------------------------2-----|
A|---------------------------------0--|
E|------------------------------------|

   Am
e|-0---------1---------3--------------|
B|----1---------1---------1-----------|
G|-------2---------2---------2--------|
D|------------------------------2-----|
A|---------------------------------0--|
E|------------------------------------|

   Am
e|-0---------1---------3--------------|
B|----1---------1---------1-----------|
G|-------2---------2---------2--------|
D|------------------------------2-----|
A|---------------------------------0--|
E|------------------------------------|

   Am
e|-0---------1---------3--------------|
B|----1---------1---------1-----------|
G|-------2---------2---------2--------|
D|------------------------------2-----|
A|---------------------------------0--|
E|------------------------------------|

   Am
e|-0---------1---------3--------------|
B|----1---------1---------1-----------|
G|-------2---------2---------2--------|
D|------------------------------2-----|
A|---------------------------------0--|
E|------------------------------------|

   Am
e|-0---------1---------3--------------|
B|----1---------1---------1-----------|
G|-------2---------2---------2--------|
D|------------------------------2-----|
A|---------------------------------0--|
E|------------------------------------|

   Am
e|-0---------1---------3--1--0--1-----|
B|----1---------1---------------------|
G|-------2---------2------------------|
D|------------------------------------|
A|------------------------------------|
E|------------------------------------|

   Am
e|-------------|
B|-1-----------|
G|----2--------|
D|-------2-----|
A|----------0--|
E|-------------|
Tap to rate this tab
# A B C D E F G H I J K L M N O P Q R S T U V W X Y Z