Ari Herstand - Rose Stained Red tab

			     Rose Stained Red - Ari Herstand

http://www.ariherstand.com/

     Please read at least the last paragraph of this, it explains how to play some of
the riffs as they aren't written exactly. The other paragraph is just a little intro I
feel might be necessary.
     For some odd reason, Ari Herstand had no representation whatsoever on this website.
Loving this song as I did, I decided it was time to start a movement and see if anyone
else would tab him. I don't have too much time on my hands, but these are all the notes
and more or less the rhythms. If I have more time I'll make it look prettier, add
coordinated lyrics with constant music instead of the riffs, maybe work out the strum
rhythms, and possibly tab the background swirly guitar during some of the verses.
     As it is, just play the verse during the verse. The prechorus is written exactly as
played. For the chorus however, he just strums, and it's somewhat hard to tell the
exact rhythm because of more instruments coming in but it's really not too important
exactly, just strum. The variation on the verse is played on the second repetition of 
the riff
after each chorus, except for the last verse, where it is played at the last repetition.
During the solo, the chords in the background are B, D, then E, except for the last
line, where it flows into the final prechorus. At the very end, the distorted guitar is 
most likely also accompanied by B, D, and E chords. The order is listed at the end.


Verse/Intro
e|--------------------------------------------------------------------------|
B|-----0-0------------0-0------------0-0---x-----0------0-------------------|
G|-----7-7------------7-7------------6-6---x-----6------6-------------------|
D|-----7-7------------7-7------------7-7---x-----7------7-------------------|
A|-----5-5----4--5----5-5------------0-0---x-----0------0-------------------|
E|-7-------------------------0--5-------------------------------------------|

Variation
e|------------------------------0-------7---------[12]----------------------|
B|-----0-0------------0-0-------0-------0---------[12]----------------------|
G|-----7-7------------7-7-------6-------6---------[12]----------------------|
D|-----7-7------------7-7-------7-------7---------[12]----------------------|
A|-----5-5----4--5----5-5-------0-------0-----------------------------------|
E|-7-------------------------0--5-------5------5/9--------------------------|

Prechorus
e|-3-----3-----3-----3-----0-----0-----0-----0------------------------------|
B|-3-----3-----3-----3-----0-----0-----0-----0------------------------------|
G|-4-----4-----4-----4-----6-----6-----6-----6------------------------------|
D|-5-----5-----5-----5-----7-----7-----7-----7------------------------------|
A|-5-----5-----5-----5-----0-----0-----0-----0------------------------------|
E|-3-----3-----3-----3-----5-----5-----5-----5------------------------------|

Chorus
e|-7---------------5--------------7-----------------------------------------|
B|-7---------------5--------------9-----------------------------------------|
G|-8---------------6--------------9-----------------------------------------|
D|-9---------------7--------------9-----------------------------------------|
A|-9---------------7--------------7-----------------------------------------|
E|-7---------------5--------------------------------------------------------|


Solo (distorted)
e|------------------5---5--------7-------------9-9-9---7-------7------------|
B|---------7--------7---7--------9-------------------------10---------------|
G|---------8--------7---7--------9------------------------------------------|
D|---------9--------7---7--------9------------------------------------------|
A|---------9----------------------------------------------------------------|
E|----5/7--7----------------------------------------------------------------|

e|------------------5---5--------7-------------7---7h9-----7---7h9----7-----|
B|-----4---4--------7---7--------9-------------9---9-------9---9------9-----|
G|-----4---4--------7---7--------9-------------9---9-------9---9------9-----|
D|-----4---4--------7---7--------9------------------------------------------|
A|-----2---2----------------------------------------------------------------|
E|--------------------------------------------------------------------------|

e|-----2---2----/---5---5--------7-------------9-9-9---7-------7------------|
B|-----4---4----/---7---7--------9-------------------------10---------------|
G|-----4---4----/---7---7--------9------------------------------------------|
D|-----4---4----/---7---7--------9------------------------------------------|
A|--------------------------------------------------------------------------|
E|--------------------------------------------------------------------------|

e|-----2---2--------5---5--------7-------------9---7-------9---7------12\7--|
B|-----4---4--------7---7--------9-------------9---9-------9---9------------|
G|-----4---4--------7---7--------9-------------9---9-------9---9------------|
D|-----4---4--------7---7--------9------------------------------------------|
A|--------------------------------------------------------------------------|
E|--------------------------------------------------------------------------|

e|--7-----7-----7-----7-------9--------9------------------------------------|
B|--10b12-10b12-10b12-10b12---12b14----12b14--------------------------------|
G|--------------------------------------------------------------------------|
D|--------------------------------------------------------------------------|
A|--------------------------------------------------------------------------|
E|--------------------------------------------------------------------------|

End (also distorted)
e|--------------------5----5------------7b9---------------------------------|
B|-7----7-------------8b10-8b10---------------------------------------------|
G|-9b11-9b11----------------------------------------------------------------|
D|--------------------------------------------------------------------------|
A|--------------------------------------------------------------------------|
E|--------------------------------------------------------------------------|


Order:

Verse (twice as much)
Prechorus
Chorus
Verse (with variation once)
Prechorus
Chorus
Verse (with variation once)
Prechorus
Chorus
Verse (variation at end)
Solo (flows into prechorus with last line)
Prechorus
Chorus
End


************************************

| /   slide up
| \   slide down
| h   hammer-on
| p   pull-off
| ~   vibrato
| []   harmonic
| x   Mute note
| b   Bend

************************************
Tap to rate this tab
 
# A B C D E F G H I J K L M N O P Q R S T U V W X Y Z