Guitaretab - guitar tabs
Song name
# A B C D E F G H I J K L M N O P Q R S T U V W X Y Z

Ari Hest - So Slow tab

So Slow - The Green Room Sessions EP - Ari Hest
Standard Tuning, Capo 1
This is taken rfrom Ari's live performances. Generally played on a 12 string, can be 
with or without a capo. Not 100%, any help appreciated.
() notate variations to chords or hammer-on, pull-offs in various performances.

1. Verse 1
E|-0---0---0-|
B|-3---3---1-|
G|-2---0---0-|
D|-0---2---2-|
A|-----3---0-|
E|-----------|

2. Chorus
E|-3---0---0---3---3-|
B|-0---1---0---3---3-|
G|-0---0---0---0---0-|
D|-0---2---2---0---2-|
A|-2---3---2---x---3-|
E|-3-------0---3-----|

3. Verse 2
E|-0---0---8--|-0---0---8---10-]
B|-7---5---10-|-7---5---10--10-]
G|-0---0---9--|-0---0---9---12-]
D|-7---5---10-|-7---5---10--x--]
A|-5---3---0--|-5---3---0---12-]
E|------------|----------------]

4. Turnaround
E|-0---0------0----|
B|-10--8(10)--7(8)-|
G|-0---0------0----|
D|-10--9------7----|
A|-8---7------5----|
E|-----------------|
[ Tab from: http://www.guitaretab.com/a/ari-hest/154985.html ]
5. Bridge
E|-0---0---0-|
B|-1---3---5-|
G|-0---0---0-|
D|-2---4---5-|
A|-0---0---0-|
E|-----------|

6. End On
E|-0-|
B|-1-|
G|-0-|
D|-2-|
A|-3-|
E|---|

(1) Seven years since she drove this road
Seven years to see her life unfold
Only been doing what sheís been told
Little by little it is getting old

(2) So slow, time is ticking when we donít know
So slow, weíre only as fast as our minds go

(3) His bodyís holding him prisoner
All the past is a cruel blur
Went in search of a familiar cure
(4) Opened his door to the strangerís voice
Felt that he had no other choice

(2) So slow, time is ticking when we donít know
So slow, weíre only as fast as our minds go
We grow hard and weary as the years show
Blood flows, out of control, Iíve got to let go

(4) Iíve got to let go
Iíve got to let go
Iíve got to let go (5)
(4) From here there is no going back

(2)So Slow
So Slow

(2) So slow, time is ticking when we donít know
So slow, weíre only as fast as our minds go
So slow, time is ticking when we donít know
Blood flows, out of control, Iíve got to let go
(6)
Related for So Slow tab