Song name
# A B C D E F G H I J K L M N O P Q R S T U V W X Y Z

Ari Hest - Dead End Driving tab

Capo on 6th  fret


Intro
0--0--0--0-----------|
1--1--1--1-----------|
2--0--2--0-----------|
2--2--3--2--(x2)-----|
0--3--3--3-----------|
---------------------|

Part 1 "dead end driv...

0--0--0--0---------|
1--1--1--1---------|
2--0--2--0---------|
2--2--3--2--(x2)---|
0--3--3--3---------|
-------------------|
Part2 "well i dont know what you...
0--1--0--0----|
1--1--3--3----|
2--2--2--0----|
2--3--0--0----|
0--3-----0----|
---1--2--3----|

Part 3 "Dead end driv..
0--0--0--0-|
1--1--1--1-|
2--0--2--2-|
2--2--3--2-|
0--3--3--0-|
-----------|

Part4 "My philosophy/ carry us....
0--1-------0--1--0--0--0-----|
3--1-------3--1--3--3--5-----|
0--2--(x2)-0--2--2--0--4-----|
0--3-------0--3--0--0--0-----|
0--3-------0--3--x--0--x-----|
3--1-------3--1--2--3--4-----|

Part1
Dead end driving in the dark
We donít know what were headed for
Like lighters flicking off sparks
Weíve been counting on a little more

Part 1
Dead end working every day
Wondering how weíre gonna get through
And the time will come when we wonít wanna play
Along just to make do

Part2
Well I donít know what you want, I donít know what you want

part3
But we been dead end driving in the dark
Tell me how we gonna make a mark?

part 4
My philosophy, new ways that I have found
To see things I have not seen, bright enough to turn me around
Surely itís a waste to think, someoneís gonna carry us now


Dead end talking bout a dream
That we really ought to set free
Cause it likely isnít what it seems
And it no longer appeals to me


So I donít know what you want
I donít know what you want

But weíve been end driving in the dark
And it ainít no way to make a mark
Weíve been dead end driving in the dark
And it ainít no way to make a mark

My philosophy, new ways that I have found
To see things I have not seen, bright enough to turn me around
Surely itís a waste to think, someoneís gonna carry us out

Carry us out
Tap to rate this tab
 
# A B C D E F G H I J K L M N O P Q R S T U V W X Y Z