Ari Hest - When And If tab

Drop "D" tuning
Capo on 7th fret

Intro
e-2-2--2-2-2-2-------|
b-3-3--3-3-3-3-------|
g-2-0--2-2-2-2-------|
d-0-0--0-0-0-0-------|
a-0-0--0-2-0-2-------|
d-0-0--2---2---------|

Part 1 "I wrote her...
e-2-2--2-2-2-2------|
b-3-3--3-3-3-3------|
g-2-0--2-2-2-2------|
d-0-0--0-0-0-0-(x2)-|
a-0-0--0-2-0-2------|
d-0-0--2---2--------|

Part 2 "The same life...
----------0----------------|
3--2------1--5-5-----------|
0--0------0--6-4-----------|
0--2-(x2)-2--0-0-----------|
0--0------3--x-x-----------|
2------------5-5-----------|

part 3
----------------|
5--5------------|
6--4------------|
0--0------------|
x--x------------|
5--5------------|
Part 1
I wrote her a letter yesterday;
told her that Iím fine.
That I canít wait to come on back
and make up for lost time.
Part 2
The same life I promised her before,
Iím going to give her when I open that door.
Part 1
They say Iím here to fight their cause,
and that I could die trying.
Iíd like to think their aim is true,
but I think that theyíre lying.
part 2
The same life I was living well before,
Iím taking back soon as I open that door..
part1
Lord will I live to see that day?
Deliver me a sign..
part1
Ďcause it is only a matter of time
before I lose my mind
Part3
yeah Iím losing my mind.

Tabbed by Abe
Tap to rate this tab
 
# A B C D E F G H I J K L M N O P Q R S T U V W X Y Z