Song name
# A B C D E F G H I J K L M N O P Q R S T U V W X Y Z

Ari Hest - Upstairs tab

Capo on 4th fret

Part 1 "Everyone......
e-3---0-2-0-0-0-2------|
b-3-3-1-3-3-3-1-3------|
g-0-0-0-2-2-2-2-2------|
d-0-4-2-0-0-0-2-0------|(x2)
a-2-5-3---3-2-0--------|
e-3--------------------|

Part2 "Did I have...
----3--0-0-0---------|
3-3-3--1-1-1---------|
0-2-0--0-0-2---------|
2-0-0--2-0-2---------|
2---2--3-2-0---------|
0-2-3----------------|


Part1
Everyone is covered in black and blue
rough edges that once were smooth, impenatrable
And everyone is different than me and you
Drinking from a posion pool that doesnt run out

Part 2
Did I have you just then?
YOur elusive as a feather falling
Never once well prepared
I wish I knew what was going on upstairs
Part1
Youre the one, whos aimlessly wandering
Drifting where the wind swings and staggering home
ANd youre the one who sold me the lonely heart
And asked me to hand it back so you could sell it for less
Part2
Did I have you just then?
YOur elusive as a feather falling
Never once well prepared
I wish I knew what was going on upstairs
Tap to rate this tab
 
# A B C D E F G H I J K L M N O P Q R S T U V W X Y Z