Guitaretab - guitar tabs
Song name
# A B C D E F G H I J K L M N O P Q R S T U V W X Y Z

Ari Koivunen - Hear My Call tab

|------------------|------------------|-12-----12----12----|
|------------------|-10b-10b-10-108--|---12-----12--------|
|-10b-10b-10-8----|------------------|------12----12---12-|
|---------------11-|------------------|--------------------|
|------------------|------------------|--------------------|
|------------------|------------------|--------------------|

|-15-12-------------------|
|-------12----12----------|
|----------14----14-12----|
|----------------------14-|
|-------------------------|
|-------------------------| 
[ Tab from: http://www.guitaretab.com/a/ari-koivunen/92934.html ]
Related for Hear My Call tab