Song name
# A B C D E F G H I J K L M N O P Q R S T U V W X Y Z

Aria - Angelskaya Pil tab

Help us improve GuitareTab! Take a short survey!
1.-----------------------------------------------|
2.-0-----0-----0---1---1-----1---0-----0-----0---|
3.---0-----0-----0---0---0-----0---0-----0-----0-|
4.-----2-----2---------2---2---------2-----2-----|
5.-----------------------------------------------|
6.-----------------------------------------------|

1.------------------------------------------------|
2.-1-----1-----1------0-----0-----0---1-----1-----|
3.---0-----0-----0------0-----0-----0---0-----0---|
4.-----2-----2------------2-----2---------2-----2-|
5.------------------------------------------------|
6.------------------------------------------------|


1.-------------------------------------|
2.-1---0-----0-----0---1-----1-----1---|
3.---0---0-----0-----0---0-----0-----0-|
4.---------2-----2---------2-----2-----|
5.-------------------------------------|
6.-------------------------------------|


Em                   C
На краю обрыва, за которым вечность,
Em                    Am6            
Ты стоиш во во власти странных грез
Em                             C
И, простившись с Миром, хочешь стать баспечным,
G                          D
Поиграв с огнем нездешних гроз.

Наконец ты счастлив, как никто на свете,
Ангельская пыль тебя уносит вверх.
Только ей подвластны и восторг, и ветер.
В жидких небесах звучит твой смех.

C      D     Em
Ангельская пыль.
C    D     H7   
Это сон и быль!
Em      C        G       D
Безумец, беглец- дороги нет.
Em       C           D
Ты видишь неверный свет.
Am         F    C        G
Твой ангел зажег мираж огня.
Am      F         G 
Он хочет убить тебя...

На краю обрыва песня неземная,
Музыка богов и голоса богинь.
Ты паришь над миром, но торговец раем
Вынет душу из тебя за гароин.

Ты устал быть птицей и сорвался камнем,
Рухнул с высоты, спасаясь от судьбы.
На краю обрыва вновь летят на пламя
Сотни мотыльков-самоубийц.

 
Related for Angelskaya Pil tab